Song name
# A B C D E F G H I J K L M N O P Q R S T U V W X Y Z

Deer Tick - Diamond Rings 2007 tab

No one tabbed this out unfortunately so I gave it a go.


This song is played in standard with the capo at the 4th fret.
Main Riff
  G         F#         E         A        D
e|-----3---------3----------0-------------2------------------------------------|
B|-------0---------0----------0-----------3--3-------------0-------0-----------|
G|----------------------------------------2----2---------2----2----------------|
D|-----------------------------------2--0-------------1---------1--------------|
A|---2--------0-----------2------0h2--------------0h2--------------------------|
E|3---------2----------0-------------------------------------------------------|
Every 4th time play it up to the D chord like this
e|---2------2|--played-times---------------------------------------------------|
B|---3--3----|-----------------------------------------------------------------|
G|---2----2--|-----------------------------------------------------------------|
D|0----------|-----------------------------------------------------------------|
A|-----------|-----------------------------------------------------------------|
E|-----------|-----------------------------------------------------------------|
And this stupid form screwed up, but you get the idea might add the solo and figure out
i tabbed wrong later. Only other riff seems to be a bridge going from a Bm to an E or F#
                                                                         Any questions 
sammywitchdr@gmail.com
Tap to rate this tab
# A B C D E F G H I J K L M N O P Q R S T U V W X Y Z