Song name
# A B C D E F G H I J K L M N O P Q R S T U V W X Y Z

Deer Tick - 20 Miles tab

-----------------------------------------------------------------------
			     20 miles ~ Deer Tick
-----------------------------------------------------------------------
Tabbed by: dragoryo (Geoffrey Toothe)
Email: gtoothe@yahoo.com

Tuning: STANDARD EADGBe
CAPO 4TH FRET

CHORD SHAPES:  C) e-0  G) e-3  Am) e-0  Em) e-0 
                  B-1     B-0      B-1      B-0
                  G-0     G-0      G-2      G-0
                  D-2     D-0      D-2      D-2
                  A-3     A-2      A-0      A-2
                  E-0     E-3      E-0      E-0

FINGERPICKING ONLY


INTRO/VERSES:


e|---------------------------------------------------------------------------|
B|------1------------0---------1--1------------0-----------------------------|
G|------------0------------0------------2------------0-----------------------|
D|---------2------------0------------2------------2--------------------------|
A|---3-------------------------0---------------------------------------------|
E|----------------3-------------------------0--------------------------------|

e|---------------------------------------------------------------------------|
B|---1--1------------0---------1--1------------0-----------------------------|
G|------------0------------0------------2------------0-----------------------|
D|---------2------------0------------2------------2--------------------------|
A|---3-------------------------0---------------------------------------------|
E|----------------3-------------------------0--------------------------------|

e|---------------------------------------------------------------------------|
B|---1--1------------0---------1--1------------0-----------------------------|
G|------------0------------0------------2------------0-----------------------|
D|---------2------------0------------2------------2--------------------------|
A|---3-------------------------0---------------------------------------------|
E|----------------3-------------------------0--------------------------------|
                                              [                ] again
e|---------------------------------------------------0-----------------------|
B|---1--1------------0---------1--1------------0--------0--------------------|
G|------------0------------0------------2------------------0-----------------|
D|---------2------------0------------2------------2-----------2--------------|
A|---3-------------------------0---------------------------------------------|
E|----------------3-------------------------0--------------------------------|

e|---------------------------------------------------------------------------|
B|---1--1------------0---------1--1------------0-----------------------------|
G|------------0------------0------------2------------0-----------------------|
D|---------2------------0------------2------------2--------------------------|
A|---3-------------------------0---------------------------------------------|
E|----------------3-------------------------0--------------------------------|
     Raindrops like bullets on my fragile skin

e|---------------------------------------------------------------------------|
B|---1--1------------0---------1--1------------0-----------------------------|
G|------------0------------0------------2------------0-----------------------|
D|---------2------------0------------2------------2--------------------------|
A|---3-------------------------0---------------------------------------------|
E|----------------3-------------------------0--------------------------------|
     And the securities Ive had are creepin within. 


e|---------------------------------------------------------------------------|
B|---1--1------------0---------1--1------------0-----------------------------|
G|------------0------------0------------2------------0-----------------------|
D|---------2------------0------------2------------2--------------------------|
A|---3-------------------------0---------------------------------------------|
E|----------------3-------------------------0--------------------------------|
     Now Im twenty miles outside of the place that you live

                                              [                ] again
e|---------------------------------------------------0-----------------------|
B|---1--1------------0---------1--1------------0--------0--------------------|
G|------------0------------0------------2------------------0-----------------|
D|---------2------------0------------2------------2-----------2--------------|
A|---3-------------------------0---------------------------------------------|
E|----------------3-------------------------0--------------------------------|
     And I need one more chance now that times runnin thin.

e|---------------------------------------------------------------------------|
B|---1--1------------0---------1--1------------0-----------------------------|
G|------------0------------0------------2------------0-----------------------|
D|---------2------------0------------2------------2--------------------------|
A|---3-------------------------0---------------------------------------------|
E|----------------3-------------------------0--------------------------------|
     Well you are the things that make up my dreams

e|---------------------------------------------------------------------------|
B|---1--1------------0---------1--1------------0-----------------------------|
G|------------0------------0------------2------------0-----------------------|
D|---------2------------0------------2------------2--------------------------|
A|---3-------------------------0---------------------------------------------|
E|----------------3-------------------------0--------------------------------|
     And Ive spent every dime that jingled my jeans.	

e|---------------------------------------------------------------------------|
B|---1--1------------0---------1--1------------0-----------------------------|
G|------------0------------0------------2------------0-----------------------|
D|---------2------------0------------2------------2--------------------------|
A|---3-------------------------0---------------------------------------------|
E|----------------3-------------------------0--------------------------------|
     I deserve every stone thats thrown out at me

                                           [leave out last guitar part]
e|---------------------------------------------------------------------------|
B|---1--1------------0---------1--1------------------------------------------|
G|------------0------------0------------2------------------------------------|
D|---------2------------0------------2---------------------------------------|
A|---3-------------------------0---------------------------------------------|
E|----------------3----------------------------------------------------------|
     And I think of your smile Im in love with your teeth 








BRIDGE:

      [DO THE WHOLE BRIDGE TWO TIMES]
e|------------0-------------------------------------------0------------------|
B|------0--------0------------------0---------------1--------1---------------|
G|------------------0---------0--------0---------------2--------0------------|
D|---------2-----------2------------------0------------------------2---------|
A|-------------------------------2-----------2-------------------------------|
E|---0---------------------3---------------------0---------------------------|
(THE PART WHERE HE GOES OOOooOoooohhhhhhHHHH da da da)

e|------------0--------------------------------------------------------------|
B|------1--------1-----------------------------------------------------------|
G|---------2--------0--------------------------------------------------------|
D|---------------------2-----------------------------------------------------|
A|---3-----------------------------------------------------------------------|
E|---------------------------------------------------------------------------|
     OOOooOoooohhhhhhHHHH  OOOooOoooohhhhhhHHHH  da da da

VERSES:

e|---------------------------------------------------------------------------|
B|---1--1------------0---------1--1------------0-----------------------------|
G|------------0------------0------------2------------0-----------------------|
D|---------2------------0------------2------------2--------------------------|
A|---3-------------------------0---------------------------------------------|
E|----------------3-------------------------0--------------------------------|
     Im loosin when I am not playin no games

e|---------------------------------------------------------------------------|
B|---1--1------------0---------1--1------------0-----------------------------|
G|------------0------------0------------2------------0-----------------------|
D|---------2------------0------------2------------2--------------------------|
A|---3-------------------------0---------------------------------------------|
E|----------------3-------------------------0--------------------------------|
     Now would you take me back when I gamble my pain?

e|---------------------------------------------------------------------------|
B|---1--1------------0---------1--1------------0-----------------------------|
G|------------0------------0------------2------------0-----------------------|
D|---------2------------0------------2------------2--------------------------|
A|---3-------------------------0---------------------------------------------|
E|----------------3-------------------------0--------------------------------|
     Ive got no direction without her little fingers.

                                           [leave out last guitar part]
e|---------------------------------------------------------------------------|
B|---1--1------------0---------1--1------------------------------------------|
G|------------0------------0------------2------------------------------------|
D|---------2------------0------------2---------------------------------------|
A|---3-------------------------0---------------------------------------------|
E|----------------3----------------------------------------------------------|
     Barbed wire razor wire nothin keeps me from her.



BRIDGE:

      [DO THE WHOLE BRIDGE TWO TIMES]
e|------------0-------------------------------------------0------------------|
B|------0--------0------------------0---------------1--------1---------------|
G|------------------0---------0--------0---------------2--------0------------|
D|---------2-----------2------------------0------------------------2---------|
A|-------------------------------2-----------2-------------------------------|
E|---0---------------------3---------------------0---------------------------|

e|------------0--------------------------------------------------------------|
B|------1--------1-----------------------------------------------------------|
G|---------2--------0--------------------------------------------------------|
D|---------------------2-----------------------------------------------------|
A|---3-----------------------------------------------------------------------|
E|---------------------------------------------------------------------------|
     OOOooOoooohhhhhhHHHH  OOOooOoooohhhhhhHHHH  da da da


VERSES:

e|---------------------------------------------------------------------------|
B|---1--1------------0---------1--1------------0-----------------------------|
G|------------0------------0------------2------------0-----------------------|
D|---------2------------0------------2------------2--------------------------|
A|---3-------------------------0---------------------------------------------|
E|----------------3-------------------------0--------------------------------|
     Now if I had no boots Id trek through the mud

e|---------------------------------------------------------------------------|
B|---1--1------------0---------1--1------------0-----------------------------|
G|------------0------------0------------2------------0-----------------------|
D|---------2------------0------------2------------2--------------------------|
A|---3-------------------------0---------------------------------------------|
E|----------------3-------------------------0--------------------------------|
     While the mosquitoes are racin to draw the first blood

e|---------------------------------------------------------------------------|
B|---1--1------------0---------1--1------------0-----------------------------|
G|------------0------------0------------2------------0-----------------------|
D|---------2------------0------------2------------2--------------------------|
A|---3-------------------------0---------------------------------------------|
E|----------------3-------------------------0--------------------------------|
     If  youre runnin away Im lookin for you

e|---------------------------------------------------------------------------|
B|---1--1------------0---------1--1------------0-----------------------------|
G|------------0------------0------------2------------0-----------------------|
D|---------2------------0------------2------------2--------------------------|
A|---3-------------------------0---------------------------------------------|
E|----------------3-------------------------0--------------------------------|
     And if youve lost your way Im seein you through.


e|---------------------------------------------------------------------------|
B|---1--1------------0---------1--1------------0-----------------------------|
G|------------0------------0------------2------------0-----------------------|
D|---------2------------0------------2------------2--------------------------|
A|---3-------------------------0---------------------------------------------|
E|----------------3-------------------------0--------------------------------|
     Oh if  youre runnin away Im lookin for you

                                           [leave out last guitar part]
e|---------------------------------------------------------------------------|
B|---1--1------------0---------1--1------------------------------------------|
G|------------0------------0------------2------------------------------------|
D|---------2------------0------------2---------------------------------------|
A|---3-------------------------0---------------------------------------------|
E|----------------3----------------------------------------------------------|
     And if youve lost your way Im seein you through.

BRIDGE:

      [DO THE WHOLE BRIDGE TWO TIMES]
e|------------0-------------------------------------------0------------------|
B|------0--------0------------------0---------------1--------1---------------|
G|------------------0---------0--------0---------------2--------0------------|
D|---------2-----------2------------------0------------------------2---------|
A|-------------------------------2-----------2-------------------------------|
E|---0---------------------3---------------------0---------------------------|

e|------------0--------------------------------------------------------------|
B|------1--------1-----------------------------------------------------------|
G|---------2--------0--------------------------------------------------------|
D|---------------------2-----------------------------------------------------|
A|---3-----------------------------------------------------------------------|
E|---------------------------------------------------------------------------|
     OOOooOoooohhhhhhHHHH  OOOooOoooohhhhhhHHHH  da da da



VERSES:
             [DO THIS THREE TIMES BEFORE GOING TO THE BRIDGE]
e|---------------------------------------------------------------------------|
B|---1--1------------0---------1--1------------0-----------------------------|
G|------------0------------0------------2------------0-----------------------|
D|---------2------------0------------2------------2--------------------------|
A|---3-------------------------0---------------------------------------------|
E|----------------3-------------------------0--------------------------------|
     if  youre runnin away Im lookin for you

                                           [leave out last guitar part]
e|---------------------------------------------------------------------------|
B|---1--1------------0---------1--1------------------------------------------|
G|------------0------------0------------2------------------------------------|
D|---------2------------0------------2---------------------------------------|
A|---3-------------------------0---------------------------------------------|
E|----------------3----------------------------------------------------------|
     And if youve lost your way Im seein you through.


BRIDGE:

      [DO THE WHOLE BRIDGE TWO TIMES]
e|------------0-------------------------------------------0------------------|
B|------0--------0------------------0---------------1--------1---------------|
G|------------------0---------0--------0---------------2--------0------------|
D|---------2-----------2------------------0------------------------2---------|
A|-------------------------------2-----------2-------------------------------|
E|---0---------------------3---------------------0---------------------------|

e|------------0--------------------------------------------------------------|
B|------1--------1-----------------------------------------------------------|
G|---------2--------0--------------------------------------------------------|
D|---------------------2-----------------------------------------------------|
A|---3-----------------------------------------------------------------------|
E|---------------------------------------------------------------------------|
     OOOooOoooohhhhhhHHHH  OOOooOoooohhhhhhHHHH  da da da

OUTRO:

    [HE PLAYS THIS LIKE SEVEN TIMES AND FADES OUT]
e|---------------------------------------------------------------------------|
B|---1--1------------0---------1--1------------0-----------------------------|
G|------------0------------0------------2------------0-----------------------|
D|---------2------------0------------2------------2--------------------------|
A|---3-------------------------0---------------------------------------------|
E|----------------3-------------------------0--------------------------------|


Any corrections or whatever, just email me at gtoothe@yahoo.com, thanks
Tap to rate this tab
 
# A B C D E F G H I J K L M N O P Q R S T U V W X Y Z