Deer Tick - Mange tab

-----------------------------------------------------------------------------
			     Mange - Deer Tick
-----------------------------------------------------------------------------
Tabbed by: Kent

Great song. Uses the "Oh Sweet Nuthin" progression (Velvet Underground), with a tweak, 
so it can do no wrong.

Basically it's C -> Bb -> F -> C

I'm not that great at tabbing out finger picking patterns and the rhythm isn't given, 
but this is the gist of it:
Listen to it.

Intro and Verse:
e|--------------------------------------------------------------------------|
B|--------------------------------------------------------------------------|
G|------5-5-------5-5------5------3-3------3-3------3-----------------------|
D|------5-5-------5-5------5------3-3------3-3------3-----------------------|
A|-2/3-3-----2/3-3----2/3-3--0h1-1----0h1-1----0h1-1------------------------|
E|--------------------------------------------------------------------------|

e|-----------------------3---1----------------------------------------------|
B|------------------------------4b--1-1-------------------------------------|
G|------2--2-3--2-----------------------------------------------------------|
D|------3--3-3--3-----------------------------------------------------------|
A|------3--3-3--3--2h3-3---3---3--3--3--------------------------------------|
E|-0h1-1--1-1--1-1----------------------------------------------------------|

[C] These words they [Bb]make the world spin [F] here in steady ro - [C] - tation
Until the new words turn the world into oblivion
Well at the end of the line and this new world feels pretty rotten
Then we'll go our separate ways to put new blood in our system


A little of this: Two times
e|-------3--1------------------1------------------1--------------3--1---------|
B|--------1--1-4--1---------4---4-4--1---------4---4-4--1---------1--1-4--1---|
G|---------0--0-0--0-0-------3---3-3--3-3-------2---2-2--2-2-------0--0-0--0-0|
D|---------------2--2---------3-----3--3---------1-----1--1--------------2--2-|
A|-2h3-3---------------0h1-1--------------------------------2h3-3-------------|
E|----------------------------------------0h1-1-------------------------------|

I've never seen eyes so hurt, the kind that scream my name
Now what can I make of life when it all seems like a game?
I've got to tie up all my loose ends 'fore my skin turns in mange
So I've gotta look at the sky and imagine I've found my place.


Go back to the heavier finger picking part. Repeat for 2-3 hours, jamming, or as long as desired.

************************************

| /   slide up
| \   slide down
| h   hammer-on
| p   pull-off
| ~   vibrato
| +   harmonic
| x   Mute note
| b   Bend
| pb  Pre-bend
| br  Bend release
| pbr Pre-bend release
| brb Bend release bend

************************************
Tap to rate this tab
 
# A B C D E F G H I J K L M N O P Q R S T U V W X Y Z