Song name
# A B C D E F G H I J K L M N O P Q R S T U V W X Y Z

Deer Tick - Not So Dense tab

By: JR
For Anna :D
Despite this being an intro tab, it covers pretty much the entire song except for a 
small solo part in the middle.


Chords

       Am - Fmaj7
e|-----0-----0----|
B|-----1-----1----|
G|-----2-----2----|
D|-----2-----3----|
A|-----0-----0----|
E|-----0-----x----|



  Am                          Fmaj7

e|---------0-------0--------|--------0--------0-------|
B|-0h1-------1---4---1------|----------1----4---1-----|
G|------2------2-------2---2|------2-----2-------2---2|
D|--------2--------------2--|----3-----------------3--|
A|--------------------------|--0----------------------|
E|--------------------------|-------------------------|
  ^Hammer-on intro part played only once.

e|---------0-------0--------|--------0--------0-------|
B|-----------1---4---1------|----------1----4---1-----|
G|-------2-----2-------2---2|------2-----2-------2---2|
D|-----2-----------------2--|----3-----------------3--|
A|---0----------------------|--0----------------------| Repeat x 3
E|--------------------------|-------------------------|




e|---------0-------0-3------|--------0-------0-5------|
B|-----------1---4-----1---1|----------1---4-----1---1|
G|-------2-----2---------2--|------2-----2---------2--|
D|-----2--------------------|----3--------------------|
A|---0----------------------|--0----------------------|
E|--------------------------|-------------------------|
    (Why did you ever vow to take the decadent path?)

e|---------0-------0-3------|--------0-----0----------|
B|-----------1---4-----1---1|----------1-----1---1----|
G|-------2-----2---------2--|------2-----2-----2------|
D|-----2--------------------|----3--------------------|
A|---0----------------------|--0----------------------|
E|--------------------------|-------------------------|
                             Trails off into the chorus here, not 100% on it.

Chorus Am - F[133211] (barred for a heavier sound)

Contact me at jar1@pct.edu, I'll be happy to receive any criticism, praise, or questions :]
Tap to rate this tab
# A B C D E F G H I J K L M N O P Q R S T U V W X Y Z