Song name
# A B C D E F G H I J K L M N O P Q R S T U V W X Y Z

Deer Tick - Easy tab

If you can figure out the rest of it thatd be great. I got lucky stumbling upon
the first part then figuring out the rest.

e|--0-------------------------------------|
B|--0-------------------------------------|
G|--0-------------------------------------|
D|--2-------------------------------------|
A|--2-------------------------------------|
E|--0------00---000003333300000---0000000-|

e|----------------------------|
B|----------------------------|
G|-9--7--5--4--9--7--5--4-----|
D|----------------------------|  2x
A|-7--5--3--2--7--5--3--2-----|
E|----------------------------|

e|---------------------------|
B|---------------------------|
G|-9--12--11--14--17--19--16-|
D|---------------------------|   2x
A|-7--10---9--12--15--17--14-|
E|---------------------------|


finger picking part that plays through the verses
the 2nd fret might alternate every other time with an open E. sounds good either way. i 
like improv anyway.

e|----3-0-|
B|---0----|
G|--------|
D|-2------|
A|--------|
E|--------|


someone figure the rest out..
Tap to rate this tab
# A B C D E F G H I J K L M N O P Q R S T U V W X Y Z