Song name
# A B C D E F G H I J K L M N O P Q R S T U V W X Y Z

Deer Tick - The Sad Sun tab

Song: The Sad Sun
Artist: Deer Tick
Album: The Black Dirt Sessions
Tabbed By: Mitchel Melanson

Tuning: Standard (Capo 2)

Main Riff:

E|--2---2h3p2-----0---0-0-0-0-0---0-0-0-0-0---0-0-0-0-0---0-0-0---0-0--|
B|--3---------3-0-1---1-1-1-1-1---1-1-1-1-1---1-1-1-1-1---1-1-1---1-1--|
G|--2-------------0---0-0-0-0-0---0-0-0-0-0---0-0-0-0-0---0-0-0---0-0--|
D|--0-------------2---2-2-2-2-2---2-2-2-2-2---2-2-2-2-2---2-2-2---2-2--|
A|----------------3---3-3-3-3-3---3-3-3-3-3---3-3-3-3-3---3-3-3---3-3--|
E|---------------------------------------------------------------------|

Chorus:

E|------3-------3-3-----3-------3-3-----3-------3-3-----3-------3-3--|
B|------3-------3-3-----3-------3-3-----3-------3-3-----3-------3-3--|
G|--0---0---0---0-0-0---0---0---0-0-0---0---0---0-0-0---0---0---0-0--|
D|--0---0---0---0-0-0---0---0---0-0-1---1---1---1-1-1---1---1---1-1--|
A|--2---2---2---2-2-2---2---2---2-2-X---X---X---X-X-X---X---X---X-X--|
E|--3---3---3---3-3-3---3---3---3-3-3---3---3---3-3-3---3---3---3-3--|

E|------0-------0-0-----0-------0-0-0---0-0-0---0-0-0-0-0---0-0-0-0--|
B|------0-------0-0-----0-------0-0-1---1-1-1---1-1-1-1-1---1-1-1-1--|
G|--0---0---0---0-0-0---0---0---0-0-0---0-0-0---0-0-0-0-0---0-0-0-0--|
D|--2---2---2---2-2-2---2---2---2-2-2---2-2-2---2-2-2-2-0---2-2-2-2--|
A|--2---2---2---2-2-2---2---2---2-2-3---3-3-3---3-3-3-3-3---3-3-3-3--|
E|--0---0---0---0-0-0---0---0---0-0----------------------------------|

E|--3-----3-3---3-3---3-3---3---3-3-0---0-0-0---0-0-0-0-0---0---0-0--|
B|--3-----3-3---3-3---3-3---3---3-3-1---1-1-1---1-1-1-1-1---1---1-1--|
G|--0-----0-0---0-0---0-0---0---0-0-0---0-0-0---0-0-0-0-0---0---0-0--|
D|--0-----0-0---0-0---0-0---0---0-0-2---2-2-2---2-2-2-2-2---2---2-2--|
A|--2-----2-2---2-2---2-2---2---2-2-3---3-3-3---3-3-3-3-3---3---3-3--|
E|--3-----3-3---3-3---3-3---3---3-3----------------------------------|
Tap to rate this tab
# A B C D E F G H I J K L M N O P Q R S T U V W X Y Z