Song name
# A B C D E F G H I J K L M N O P Q R S T U V W X Y Z

Deer Tick - Ashamed tab

This is really easy and correct for at least the intro and pretty much the whole song, 
however at some point I'm sure he does something a little different.  Let me know and 
I'll fix whatever.

e|-----------0----------0-------|
B|---1---------1----------1-----|
G|---------0----------0---------|
D|-----0h2--------0h2-----------|
A|-3----------------------------|
E|------------------------------|

e|-----------0---------0---------|
B|---1---------1---------1-------|
G|---------0---------0-----------|
D|-2---0h2-------0h2-------------|
A|-------------------------------|
E|-------------------------------|
Tap to rate this tab
# A B C D E F G H I J K L M N O P Q R S T U V W X Y Z