Song name
# A B C D E F G H I J K L M N O P Q R S T U V W X Y Z

Deer Tick - Dirty Dishes tab

Pretty confident that this is 100%.
After you learn the intro, the picking pattern stays the same, just follow the chords!
:)

-------------------------------------------------------------------------------
                             DIRTY DISHES - Deer Tick
-------------------------------------------------------------------------------
Tabbed by: Lee Callaghan

Tuning: Standard (Capo 5)


       C              Em7              C                F               C

E  -----0-------|------0--------|-----0-----------|-----1--------|------0-------|
B  -1-----------|--3------------|-1---------------|-1------------|--1-----------|
G  ---0---0-(X2)|----0---0--(X2)|---0---0---0---0-|---2---2------|----0---0-(x2)|
D  -----2-------|------0--------|-----2---0---2---|-----3----(X2)|------2-------|
A  -3-----------|--2------------|-3---------------|--------------|--3-----------|
E  -------------|---------------|-----------------|-1------------|--------------|

        Em7             C                        C              Em7

E  -----0---------|------0---------|--(BEFORE VERSE}-------|--------0----|
B  -3-------------|--1-------------|-------------1---------|--3----------|
G  ---0---0--(x2)-|----0---0-(x2)--|-------------------0---|-----0-----0-|
D  -----0---------|------2---------|----------------2------|--------0----|
A  -2-------------|--3-------------|----------3------------|--2----------|
E  ---------------|----------------|-----------------------|-------------|


The rest of the song is basically the same patterns, just with this progression:

VERSE

Am7  Em7   C   F   C   Em7  C   F   C  Em7   C  (then play the 'before verse' part, and repeat!)
Tap to rate this tab
 
# A B C D E F G H I J K L M N O P Q R S T U V W X Y Z