Song name
# A B C D E F G H I J K L M N O P Q R S T U V W X Y Z

Deer Tick - Houston Tx tab

-------------------------------------------------------------------------------
                             Houston Tx. - Deer Tick
-------------------------------------------------------------------------------
Tabbed by: Amy Griffiths
Contact: youtube username:  covetingaremedy

Tuning: Standard

INTRO

PART ONE: PLAY TWICE
G shape                                             Am7 shape
E|--------------------------------------------------------------------------------------------|
B|-----0-----------0-----------0-----------0-----------------1--------------1--------1--------|
G|-----------0-----------0-----------0-----------0-----0--------0-----0-----------0--------0--|
D|--------0-----------0-----------0-----------0-----------2--------2-----------2--------2-----|
A|--------------------------------------------------0--------------------0--------------------|
E|--3-----------3-----------3-----------5-----------------------------------------------------|

PART TWO: PLAY TWICE
G shape                                              Cshape                Dshape
E|----------------------------------------------------------------------------------2--------|
B|------0------------0-----------0-----------0-----------------1--------------3--------3-----|
G|------------0------------0-----------0-----------0-----0--------0-----0-----------------2--|
D|---------0------------0-----------0-----------0-----------2--------2-----0-----2-----------|
A|--12-----------11-----------9-----------7-----------3--------------------------------------|
E|-------------------------------------------------------------------------------------------|


VERSES 1/2/3/4

Play four times per verse

G shape                                             Am7 shape
E|----------------------------------------------------------------------------------------------|
B|-----0-----------0-----------0-----------0-----------------1--------------1-----------1-------|
G|-----------0-----------0-----------0-----------0-----0--------0-----0-----------0----------0--|
D|--------0-----------0-----------0-----------0-----------2--------2-----------2----------2-----|
A|--------------------------------------------------0--------------------0-----------0----------|
E|--3-----------3-----------3-----------5-------------------------------------------------------|

Verse Ending for Verses 1 and three

G shape
E|-----------------------------------------------3--------------------------------|
B|-----------0-----------------1--------0-----------0-----------0-----------------|
G|-----0--------0--------0--------0--------0-----------0--------------0-----------|
D|--------0--------0--------0--------0--------0-----------0--------0--------------|
A|--------------------------------------------------------------------------------|
E|--3-----------------3--------------------------------------3-----------0--2--3--|

Choruses (play once per song line)

G shape                                              C shape              D shape
E|----------------------------------------------------------------------------------2--------|
B|------0------------0-----------0-----------0-----------------1--------------3--------3-----|
G|------------0------------0-----------0-----------0-----0--------0-----0-----------------2--|
D|---------0------------0-----------0-----------0-----------2--------2-----0-----2-----------|
A|--12-----------11-----------9-----------7-----------3--------------------------------------|
E|-------------------------------------------------------------------------------------------|

Ending:

PlAY THIS (G/AM7) TWICE
G shape                                             Am7 shape
E|----------------------------------------------------------------------------------------------|
B|-----0-----------0-----------0-----------0-----------------1--------------1-----------1-------|
G|-----------0-----------0-----------0-----------0-----0--------0-----0-----------0----------0--|
D|--------0-----------0-----------0-----------0-----------2--------2-----------2----------2-----|
A|--------------------------------------------------0--------------------0-----------0----------|
E|--3-----------3-----------3-----------5-------------------------------------------------------|

G shape                                              Cshape                Dshape
E|----------------------------------------------------------------------------------2--------|
B|------0------------0-----------0-----------0-----------------1--------------3--------3-----|
G|------------0------------0-----------0-----------0-----0--------0-----0-----------------2--|
D|---------0------------0-----------0-----------0-----------2--------2-----0-----2-----------|
A|--12-----------11-----------9-----------7-----------3--------------------------------------|
E|-------------------------------------------------------------------------------------------|

C shape

E|----------------------------------------------------------------------0-----------|
B|------0------------0-----------0-----------0-----------------2--------------2-----|
G|------------0------------0-----------0-----------0-----0--------0--------0-----0--|
D|---------0------------0-----------0-----------0-----------3--------3--------------|
A|--12-----------11-----------9-----------7-----------4-----------------------------|
E|----------------------------------------------------------------------------------|

C shape (slide whole chord down one fret)

E|--------------------0h3--3--0--------------------------------------------------0-|
B|-----------1----------------------0-----------0-----------0-----------0--------1-|
G|-----0--------0-------------------------0-----------0-----------0-----------0--0-|
D|--------2--------2-------------------0-----------0-----------0-----------0-----2-|
A|--3----------------------------------------------------2-----------5-----------3-|
E|-------------------------------0-----------3-----------------------------------0-|
Tap to rate this tab
 
# A B C D E F G H I J K L M N O P Q R S T U V W X Y Z