Song name
# A B C D E F G H I J K L M N O P Q R S T U V W X Y Z

Deerhoof - Fresh Born tab

-------------------------------------------------------------------------------
			    Fresh Born - Deerhoof
-------------------------------------------------------------------------------
Tabbed by: Christian Demmings
Email: cdemmings@hotmail.com

Tuning: Standard.

Originally there are two electric guitars in this song, played by two very good
I'm one person, playing on an acoustic guitar, and I'm not great. Bear with me. The
are
each tab.

Intro:

e|-14--14--14--14-12---------------12--12---------|
B|-------------------13--13--13-12--------13-12-10|
G|------------------------------------------------|   Repeat 4x
D|------------------------------------------------|
A|------------------------------------------------|
E|------------------------------------------------|

Part A:

e|-7-7--7-7--7--7-7--7-9-12--7-7--7-7--7--7-7--7-9-12------------------------|
B|---------------------------------------------------------------------------|
G|---------------------------------------------------------------------------|
D|=--------------------------------------------------------------------------|
A|---------------------------------------------------------------------------|
E|---------------------------------------------------------------------------|
										
Repeat 3x
e|-13-13--13-13--13--13-13--13-11------13-13--13-13--13--13-13--13-11--------|
B|---------------------------------13----------------------------------13----|
G|---------------------------------------------------------------------------|
D|---------------------------------------------------------------------------|
A|---------------------------------------------------------------------------|
E|---------------------------------------------------------------------------|

At the same time another guitar is playing this: On the Low E string, hammer on 7, keep
finger there and tap 8, 4x/beat, total of 16, then switch to the A string and do the
thing, but hammer on 8 to start, then tap 4x/beat, 16 taps. Do this twice to correspond
Part A.

Part B:

e|-5--5--x--x-x--x--x--x-x-x-5-5-x--x-x--x--x--x-x-x-------------------------|
B|-5--5--x--x-x--x--x--x-x-x-5-5-x--x-x--x--x--x-x-x-------------------------|
G|-5--5--x--x-x--x--x--x-x-x-5-5-x--x-x--x--x--x-x-x-------------------------| Repeat 3x
D|-7--7--x--x-x--x--x--x-x-x-7-7-x--x-x--x--x--x-x-x-------------------------|
A|-7--7--x--x-x--x--x--x-x-x-7-7-x--x-x--x--x--x-x-x-------------------------|
E|-5--5--x--x-x--x--x--x-x-x-5-5-x--x-x--x--x--x-x-x-------------------------|

Bambi boo stand push up

e|-3--3--x-x-x--8--8--x-x-x--3--3--x-x-x--8--8--x-x-x------------------------|
B|-3--3--x-x-x--8--8--x-x-x--3--3--x-x-x--8--8--x-x-x------------------------|
G|-3--3--x-x-x--8--8--x-x-x--3--3--x-x-x--8--8--x-x-x------------------------| Just once.
D|-5--5--x-x-x--10-10-x-x-x--5--5--x-x-x--10-10-x-x-x------------------------|
A|-5--5--x-x-x--10-10-x-x-x--5--5--x-x-x--10-10-x-x-x------------------------|
E|-3--3--x-x-x--8--8--x-x-x--3--3--x-x-x--8--8--x-x-x------------------------|

Born born born born

e|-5--5--x--x-x--x--x--x-x-x-5-5-x--x-x--x--x--x-x-x-------------------------|
B|-5--5--x--x-x--x--x--x-x-x-5-5-x--x-x--x--x--x-x-x-------------------------|
G|-5--5--x--x-x--x--x--x-x-x-5-5-x--x-x--x--x--x-x-x-------------------------| Repeat 2x
D|-7--7--x--x-x--x--x--x-x-x-7-7-x--x-x--x--x--x-x-x-------------------------|
A|-7--7--x--x-x--x--x--x-x-x-7-7-x--x-x--x--x--x-x-x-------------------------|
E|-5--5--x--x-x--x--x--x-x-x-5-5-x--x-x--x--x--x-x-x-------------------------|

Born... Bambi totters foot foot


e|-3--3--x-x-x--8--8--x-x-x--3--3--x-x-x--8--8--x-x-x------------------------|
B|-3--3--x-x-x--8--8--x-x-x--3--3--x-x-x--8--8--x-x-x------------------------|
G|-3--3--x-x-x--8--8--x-x-x--3--3--x-x-x--8--8--x-x-x------------------------| Just once.
D|-5--5--x-x-x--10-10-x-x-x--5--5--x-x-x--10-10-x-x-x------------------------|
A|-5--5--x-x-x--10-10-x-x-x--5--5--x-x-x--10-10-x-x-x------------------------|
E|-3--3--x-x-x--8--8--x-x-x--3--3--x-x-x--8--8--x-x-x------------------------|

Tot tot tot tot tot

e|-5--5--x--x-x--x--x--x-x-x-5-5-x--x-x--x--x--x-x-x-------------------------|
B|-5--5--x--x-x--x--x--x-x-x-5-5-x--x-x--x--x--x-x-x-------------------------|
G|-5--5--x--x-x--x--x--x-x-x-5-5-x--x-x--x--x--x-x-x-------------------------| Just once.
D|-7--7--x--x-x--x--x--x-x-x-7-7-x--x-x--x--x--x-x-x-------------------------|
A|-7--7--x--x-x--x--x--x-x-x-7-7-x--x-x--x--x--x-x-x-------------------------|
E|-5--5--x--x-x--x--x--x-x-x-5-5-x--x-x--x--x--x-x-x-------------------------|

Tot...

Part C:

e|---------------------------------------------------------------------------|
B|---------------------------------------------------------------------------|
G|---------------------------------------------------------------------------| Repeat 2x
D|---------------------------------------------------------------------------|
A|--------------------------------7--7---7--7---7--5-7-5--7--7---------------|
E|--3--3---3--3---3--5-3-5--3--3---------------------------------------------|

Mini body S.O.S. dotty
Downy hairy tip toeing moony
Tiny hoofies bend oh bend bonny
Puffy butty stand up now waggy

Part A:

e|---------------------------------------------------------------------------|
B|---------------------------------------------------------------------------|
G|-------------------------9--------------------------9----------------------|
D|-9-9--9-9--9--9-9--9-11-----9-9--9-9--9--9-9--9-11-------------------------|
A|---------------------------------------------------------------------------|
E|---------------------------------------------------------------------------|
						  
Repeat 3x
e|---------------------------------------------------------------------------|
B|---------------------------------------------------------------------------|
G|-10-10--10-10--10--10-10--10-8------10-10--10-10--10--10-10--10-8----------|
D|--------------------------------10---------------------------------10------|
A|---------------------------------------------------------------------------|
E|---------------------------------------------------------------------------|

Part D:

e|-5--5--x--x-x--x--x--x-x-x-5-5-x--x-x--x--x--x-x-x-------------------------|
B|-5--5--x--x-x--x--x--x-x-x-5-5-x--x-x--x--x--x-x-x-------------------------|
G|-5--5--x--x-x--x--x--x-x-x-5-5-x--x-x--x--x--x-x-x-------------------------| Once.
D|-7--7--x--x-x--x--x--x-x-x-7-7-x--x-x--x--x--x-x-x-------------------------|
A|-7--7--x--x-x--x--x--x-x-x-7-7-x--x-x--x--x--x-x-x-------------------------|
E|-5--5--x--x-x--x--x--x-x-x-5-5-x--x-x--x--x--x-x-x-------------------------|

Bamboozle hide in grass

e|-3--3--x-x-x--8--8--x-x-x--3--3--x-x-x--8--8--x-x-x------------------------|
B|-3--3--x-x-x--8--8--x-x-x--3--3--x-x-x--8--8--x-x-x------------------------| Once.
G|-3--3--x-x-x--8--8--x-x-x--3--3--x-x-x--8--8--x-x-x------------------------|
D|-5--5--x-x-x--10-10-x-x-x--5--5--x-x-x--10-10-x-x-x------------------------|
A|-5--5--x-x-x--10-10-x-x-x--5--5--x-x-x--10-10-x-x-x------------------------|
E|-3--3--x-x-x--8--8--x-x-x--3--3--x-x-x--8--8--x-x-x------------------------|

Down down down down down

e|-5--5--x--x-x--x--x--x-x-x-5-5-x--x-x--x--x--x-x-x-------------------------|
B|-5--5--x--x-x--x--x--x-x-x-5-5-x--x-x--x--x--x-x-x-------------------------|
G|-5--5--x--x-x--x--x--x-x-x-5-5-x--x-x--x--x--x-x-x-------------------------| Repeat 2x
D|-7--7--x--x-x--x--x--x-x-x-7-7-x--x-x--x--x--x-x-x-------------------------|
A|-7--7--x--x-x--x--x--x-x-x-7-7-x--x-x--x--x--x-x-x-------------------------|
E|-5--5--x--x-x--x--x--x-x-x-5-5-x--x-x--x--x--x-x-x-------------------------|

Down... Bambi boo hop step jump

e|-3--3--x-x-x--8--8--x-x-x--3--3--x-x-x--8--8--x-x-x------------------------|
B|-3--3--x-x-x--8--8--x-x-x--3--3--x-x-x--8--8--x-x-x------------------------| Once.
G|-3--3--x-x-x--8--8--x-x-x--3--3--x-x-x--8--8--x-x-x------------------------|
D|-5--5--x-x-x--10-10-x-x-x--5--5--x-x-x--10-10-x-x-x------------------------|
A|-5--5--x-x-x--10-10-x-x-x--5--5--x-x-x--10-10-x-x-x------------------------|
E|-3--3--x-x-x--8--8--x-x-x--3--3--x-x-x--8--8--x-x-x------------------------|

Fawn fawn fawn fawn fawn

e|-5--5--x--x-x--x--x--x-x-x-5-5-x--x-x--x--x--x-x-x-------------------------|
B|-5--5--x--x-x--x--x--x-x-x-5-5-x--x-x--x--x--x-x-x-------------------------|
G|-5--5--x--x-x--x--x--x-x-x-5-5-x--x-x--x--x--x-x-x-------------------------| Once.
D|-7--7--x--x-x--x--x--x-x-x-7-7-x--x-x--x--x--x-x-x-------------------------|
A|-7--7--x--x-x--x--x--x-x-x-7-7-x--x-x--x--x--x-x-x-------------------------|
E|-5--5--x--x-x--x--x--x-x-x-5-5-x--x-x--x--x--x-x-x-------------------------|

Fawn...

Part C:

e|---------------------------------------------------------------------------|
B|---------------------------------------------------------------------------|
G|---------------------------------------------------------------------------| Repeat 2x
D|---------------------------------------------------------------------------|
A|--------------------------------7--7---7--7---7--5-7-5--7--7---------------|
E|--3--3---3--3---3--5-3-5--3--3---------------------------------------------|

Mini body S.O.S. dotty
Downy hairy tip toeing moony
Tiny hoofies bend oh bend bonny
Puffy butty stand up now waggy

Part D:

e|-0---5-5--3-3------0---5-5--3-3--------------------------------------------------------|
B|-0---5-5--3-3------0---5-5--3-3--------------------------------------------------------|
G|-0---5-5--3-3------0---5-5--3-3--------------------------------------------------------|
D|-2---7-7--5-5------2---7-7--5-5--------------------------------------------------------|
A|-2---7-7--5-5------2---7-7--5-5--------------------------------------------------------|
E|-0---5-5--3-3------0---5-5--3-3--------------------------------------------------------|

La, la, la, la, la, la

You just played a Deerhoof song! You should be proud.
Tap to rate this tab
 
# A B C D E F G H I J K L M N O P Q R S T U V W X Y Z