Song name
# A B C D E F G H I J K L M N O P Q R S T U V W X Y Z

Deerhoof - Fresh Born tab

Hi this is my first tab. E-mail v5theworld@yahoo.com if any q's. Enjoy
From: Dillon Lee

Guitar 1 Intro
e|-14--14--14--14-12---------------12--12---------|
B|-------------------13--13--13-12--------13-12-10|
G|------------------------------------------------|   Repeat 4x
D|------------------------------------------------|
A|------------------------------------------------|
E|------------------------------------------------|

Guitar 2
e|--10--10--10--10--8--8--8--7--7--3-|
B|--10--10--10--10--8--8--8--8--8--3-|
G|--11--11--11--11--9--9--9--9--9--4-|
D|--12--12--12--12--10-10-10-9--9--5-|
A|--12--12--12--12--10-10-10-7--7--5-|
E|--10--10--10--10--8--8--8--------3-| Repeat 4x

Guitar 1 Part A x3

e|-----------------------------9-12-------------------------9-12-|
B|--12-12-12-12-12-12-12-12-12------12-12-12-12-12-12-12-12------|
G|---------------------------------------------------------------|
D|---------------------------------------------------------------|
A|---------------------------------------------------------------|
E|---------------------------------------------------------------| 

e|--13-13-13-13-13-13-13-13-11----13-13-13-13-13-13-13-13-11----|
B|-----------------------------13----------------------------13-|
G|--------------------------------------------------------------|
D|--------------------------------------------------------------|
A|--------------------------------------------------------------|
E|--------------------------------------------------------------|

Guitar 2 Part A x3
e|-------|  - The guitarist plays it like this but you can just hit the 7th 
B|-------|   fret on the low E and hammer on to the 8th fret.
D|-------|
G|-------|
A|----3--|
E|--7----| x16 

e|------|
B|------|
G|------|
D|----3-|
A|--7---| x16  - Same as top but on the A string
E|------|

BOTH GUITARS
e|-------|
B|--8--8-| both guitars do this for awhile. (Don't do this part when 
G|--7--7-| repeating).
D|--6--6-|
A|--7--7-|
E|-------|
 
Guitar 1 Part B x2
e|-----------------------------------------------|
B|----------8-10-7-12-10-8-10-7-12-10-8-10-7-8~--|
G|--------9--------------------------------------| x2
D|-----11----------------------------------------|
A|--12-------------------------------------------|
E|-----------------------------------------------| 

optional
|--14p1312---| 
|------------|
|------------|
|------------|
|------------|
|------------|

Guitar 2 Part B x2
e|------|
B|--8---|  Use this chord multiple times and mute the strings when you
G|--7---|  here it
D|--6---|
A|--7---|
E|------|

e|--3-3-5-5-3-3-5-5----|
B|--3-3-7-7-3-3-7-7--8-|
G|--4-4-7-7-4-4-7-7--7-|
D|--5-5-7-7-5-5-7-7--6-|
A|--5-5-5-5-5-5-5-5--7-|
E|--3-3-----3-3--------|

Both Guitars
e|-------------------------------------------|
B|-------------------------------------------| x2
G|-------------------------------------------|
D|-------------------------------------------|
A|------------5---5-----7-7-7-7-7-----5-7-7--|
E|--3-3-3-3-3---3---3-3-----------7-7--------| 

!!!PART A TO PART B REPEAT!!!

Guitar 1 Part C
e|--------------------|
B|--12--14-14-12-12---| x5    When using these chords bend the strings up
G|--11--13-13-11-11---|       and let them ring  
D|--12--11-11-12-12---|
A|--------------------|
E|--------------------|

Guitar 2 Part C
e|-----9-9-9~--9~---|
B|--12-----12~-12~--| x5
G|------------------|
D|------------------|
A|------------------|
E|------------------|

DONE.
Tap to rate this tab
 
# A B C D E F G H I J K L M N O P Q R S T U V W X Y Z