Song name
# A B C D E F G H I J K L M N O P Q R S T U V W X Y Z

Deerhoof - No One Asked To Dance tab

Deerhoof - No One Asked to Dance

Don't know how accurate this is, sounds pretty good to me, but play this and let 
me know what you think. 
Rate it 5 stars if you think it sounds correct.
(Listen to the song for the rhythm of the notes.)


e|-----6-----5------------0--------------------------6----5----------------|
B|-----6-----6------8\\\\\2--------------------3h5h6-6----6----13\\11--10~-|
G|---7-------5------6\\\\\0-------2p0---5p3p2h3------7----5----12\\9-------|
D|-----------7------5\\\\\2----2h3---2h3-------------8----7----14\\11------|
A|-----------8------7--------------------------------8----8----------------|
E|-------------------------------------------------------------------------|
      Bb     F      A7    A7      Fast Part          Bb   F    C   F#7

e|---10---------------8------------------------------------------|
B|---------11-10~---------11~------------------------------------|
G|------10--------------9---------pbr(1step)12-12-10~---9-6------|
D|----------------------------------------------------------7~---|
A|---------------------------------------------------------------|
E|---------------------------------------------------------------|
     |-----Let ring out.---|

e|----6-----5----------0--------------------------6----5--------------------|
B|----6-----6----8\\\\\2--------------------3h5h6-6----6----13\\11--10-9-10~|
G|----7-----5----6\\\\\0-------2p0---5p3p2h3------7----5----12\\9-----------|
D|----8-----7----5\\\\\2----2h3---2h3-------------8----7----14\\11----------|
A|----8-----8----7--------------------------------8----8--------------------|
E|--------------------------------------------------------------------------|
      Bb    F    A7    A7      Fast Part          Bb   F    C   F#7

e|---10---------------8---------------------------------------------|
B|---------11-10~---------11~---------------------------------------|
G|------10--------------9---------pbr(1step)12p10-12-10~---9-6------|
D|-------------------------------------------------------------7~---|
A|------------------------------------------------------------------|
E|------------------------------------------------------------------|
     |-----Let ring out.---|

I haven't quite figured out the bridge part, but at least you have the verses! 

************************************

| /   slide up
| \   slide down
| h   hammer-on
| p   pull-off
| ~   vibrato
| +   harmonic
| x   Mute note
| b   Bend
| pb  Pre-bend
| br  Bend release
| pbr Pre-bend release
| brb Bend release bend

************************************
Tap to rate this tab
 
# A B C D E F G H I J K L M N O P Q R S T U V W X Y Z