Deerhoof - Behold A Marvel In The Darkness tab

Had trouble with this one until i realised it was really simple. Still working on some 
of the other parts, but here are some.
Guitar Pro file will be coming your way shortly, i hope. In this tab, i wrote the chords 
as full barchords, but when Deerhoof play it, they emphasise the lower four stings, 
particularly the G string.
-Tabbed by Raideh
Email - Raideheiji@gmail.com

Main Riff
-1-1--1-3-3--3-6-6--6-6-6--6--|E
-1-1--1-3-3--3-6-6--6-6-6--6--|B
-2-2--2-4-4--4-7-7--7-7-7--7--|G
-3-3--3-5-5--5-8-8--8-8-8--8--|D
-3-3--3-5-5--5-8-8--8-8-8--8--|A
-1-1--1-3-3--3-6-6--6-6-6--6--|E

-1-1--1-3-3--3-6-6--6-6-6--6--|E
-1-1--1-3-3--3-6-6--6-6-6--6--|B
-2-2--2-4-4--4-7-7--7-6-6--6--|G
-3-3--3-5-5--5-8-8--8-8-8--8--|D
-3-3--3-5-5--5-8-8--8-8-8--8--|A
-1-1--1-3-3--3-6-6--6-6-6--6--|E

Pre-Chorus/ Vocal Doubling
----------------10-------|
-10-8------10------8-----|
------10-7------------10-|
-------------------------|  3 Times
-------------------------|
-------------------------|


Chorus (Both Guitars)
---------------------------------------------------|
---------------------------------------------------|
---------------------------------------------------|
-----------------------------------------2---------|
------------2---4-2-------------2-4---4-----4-2----|
-0---0-2-4-----------4-2---2-4-------------------4-|
(Guitar 1)
---------------------------------|
-----------------8-8-8-8-8-8-8-8-|
-5-5-5-5-5-5-5-5-7-7-7-7-7-7-7-7-| 2 times
-5-5-5-5-5-5-5-5-5-5-5-5-5-5-5-5-|
-3-3-3-3-3-3-3-3-----------------|
---------------------------------|
OR (Dif. Fingering)
-------------------------------------------------|
-------------------------------------------------|
-------------------------12-12-12-12-12-12-12-12-| 2 times
-10-10-10-10-10-10-10-10-12-12-12-12-12-12-12-12-|
-10-10-10-10-10-10-10-10-10-10-10-10-10-10-10-10-|
-8--8--8--8--8--8--8--8--------------------------|

(Guitar 2)
-----7---10-8-7-----8-7|
-8-10--8---------10----|
-----------------------|
-----------------------|
-----------------------|
-----------------------|
Tap to rate this tab
 
# A B C D E F G H I J K L M N O P Q R S T U V W X Y Z