Guitaretab - guitar tabs
Song name
# A B C D E F G H I J K L M N O P Q R S T U V W X Y Z

Deerhoof - Wrong Time Capsule tab

There's obviously been no thought put it to rythmn but it's a tab so you can figure that 
by listening and playing along.

Artist: Deerhoof
  Song: Wrong Time Capsule
 Album: Runners Four


Main Riff, Verse

Gtr I

e|--------------------------------------------------------------------|
B|---------------------10-8---777-777-777-999-------------------------|
G|-----7---9-----(7h)9-9--9---999-777-888-999-------------------------|
D|-7/9---9---7----------------777-777-999-999-------------------------| X3
A|--------------------------------555-999-777-------------------------|
E|------------------------------------777-----------------------------|


                                               C   G   D   E
e|---------------------------------------------------------------|
B|---------------------10-8---777-777-777-----5---3---7----------|
G|-----7---9-----(7h)9-9--9---999-777-888-----5---4---7---1------|
D|-7/9---9---7----------------777-777-999-----5---5---7---2------|
A|--------------------------------555-999-----3---5---5---2------|
E|------------------------------------777---------3-------0------|


Gtr II

(intro 2rd)
e|-------------------------7------------------------------------------|
B|----------------------------10--8--7-----8--------------------------|
G|----------------------9---------------9-----------------------------|
D|--------------------------------------------------------------------|
A|--------------------------------------------------------------------|
E|--------------------------------------------------------------------|
                    ...it's no wonder, no fun...
(intro 3rd)
e|-------------------------7------------------------------------------|
B|----------------------------10--8--7--------------------------------|
G|----------------------9---------------9-----------------------------|
D|-----------------------------------------9--------------------------|
A|--------------------------------------------------------------------|
E|--------------------------------------------------------------------|
[ Tab from: http://www.guitaretab.com/d/deerhoof/69422.html ]
(intro 4th)
e|-------------------------7------------------------------------------|
B|----------------------------10--8--7-----8~-------------------------|
G|----------------------9---------------9---------9--7----------------|
D|------------------------------------------------------9--7----------|
A|------------------------------------------------------------10--7---|
E|--------------------------------------------------------------------|


SOLO

e|-7------------7------8-8-10-7--------7-10-(10-7---10-7--8)---------|
B|---8--------8----8------------8----8------------8------8-----------|
G|-----9-7--9--------9------------10---------------------------------|
D|--------------------------------------------------------------------|
A|--------------------------------------------------------------------|
E|--------------------------------------------------------------------|

Interlude bit (I think)

e|--------------------------------------------------------------------|
B|-------------7~-------------------------7~--------------------------|
G|--9~---------8~------------------6~-----8~---9~---------------------|
D|--9~---------9~------------------6~-----9~---9~---------------------|
A|--7~---------7~------------------7~-----7~---8~---------------------|
E|--------------------------------------------------------------------|
 ...Bend the machine...

e|--------------------------------------------------------------------|
B|--------------------------------------------------------------------|
G|--5~----------7~----------9~----------------------------------------|
D|--5~----------7~----------9~----------9---9-8-7-6-------------------|
A|--3~----------5~----------7~----------7---7-7-7-7-------------------|
E|--------------------------------------0---0-0-0-0-------------------|
         ...syncopate, forwards backwards...

GTR II

e|---------------|
B|---------------|
G|----9 (just keeps playing this note)
D|---------------|
A|---------------|
E|---------------|

OUTRO

GTR I play intro again but maybe bend a few notes and get a little more excited

Gtr II

e|---------------------------               --------------------------|
B|---------------------------               --------------------------|
G|---------------------------               --------------------------|
D|-------0--2--0-------------               --/5-----2--0-------------|
A|-0--2-----------2--0-------               ---------------2--0-------|
E|----------------------3--0-X2  then to end---------------------3--0-|

Enjoy!



Tabbed by Sam Haydon ('rrect tabber)
Related for Wrong Time Capsule tab