Song name
# A B C D E F G H I J K L M N O P Q R S T U V W X Y Z

Deerhoof - Frenzied Handsome Hello tab

This one's for the real deerhoof fans

Frenzied Handsome, Hello!

to start everything is tuned up a bit, so u gotta use your ears to match your guitar.


				repeat.   then that cool fill
-----0--------------------------------------0~~~----12-----------------8--7-----------|
-----8-----------13------------------------/sl/13-----13---------0~~~~----0-----------|
-----9----////---14-------------------------0~~------(12)-------/sl/7---------0----0--|
-----10----------15-----------------------------------------------------------2----3--|
-----10----------15-----------------------------------------------------------3----3--|
-----8-----------13--1-1-1-1-1-1----------------------------------------------1----1--|


--------------------------------------------------0----------------------------------|
-----------4-----------------4----------4---3-----5--/////---------------------------|
---------5--------5--------5---------5------4----------------------------------------|
-------5--------5--------5------------------5----------------------------------------|
-----x-----------------x-------------------------------------------------------------|
-----4--4--4-44-4-4--4-4--------------------3----------------------------------------|

just keep playing the root while picking out the melody, all of the chords should be 
'jimi hendrix style'

All around the world....   Keep alternating between these two chords and match up to the song
---------9------------------------------------------------------------------------------|
---------0-----8------------------------------------------------------------------------|
---------0-----0------------------------------------------------------------------------|
---------7-----0------------------------------------------------------------------------|
------------8---------------------------------------------------------------------------|
-----8----------------------------------------------------------------------------------|

the the song then basically repeats, ending with these chords:

-----------------------------6-------7--------|
-----8------------10-10/sl---6-------7--------|
-----9-----/////--10-10/-----7--///--8---///--|
-----10-----------10-10/----------------------|
-----10-----------8--8------------------------|
-----8-----------------------6-------7--------|


Jimi Hendrix Style:

	G
--------(3)----------------------------------------------------------------------------|
---------3-----------------------------------------------------------------------------|
---------4-----------------------------------------------------------------------------|
---------5-----------------------------------------------------------------------------|
---------x-----------------------------------------------------------------------------|
---------3-----------------------------------------------------------------------------|

Low E string played by thumb wrapped around neck
D string is your ring finger
G is your middle
B is your first
High E string can be played by rolling your 1st finger down to barr it

the whole point is to leave your pinky free to play some nice melody lines.
you can also use the pinky to make a full chord, that is, no "x", instead a "5" in this example.
this is how the opening chords should be played.

good luck
sasha.
Tap to rate this tab
# A B C D E F G H I J K L M N O P Q R S T U V W X Y Z