Song name
# A B C D E F G H I J K L M N O P Q R S T U V W X Y Z

Deerhoof - Spy On You tab

Help us improve GuitareTab! Take a short survey!
Iv'e looked around the internet and have noticed only two other tabs.  I'm trying to 
out more songs from Reveille , Apple o , and The Runners Four .  Currently Iv'e been very 
but if i have anymore time i'll try to put some up.  For the mean time here is Spy on You. So enjoy!
Song:"Spy on You"
Album:"The Runners Four"
(Listen To Song For Timing)

 Intro played throughout whole song
E|---------------------------------------------------------------------------|
B|---------------------------------------------------------------------------|
G|---------------------------4-4-4-4-4-4-4-4-4-4-4-4-4-4-4-4-----------------|
D|---------------------------6-6-6-6-6-6-6-6-4-4-4-4-4-4-4-4-----------------|
A|---------------------------------------------------------------------------|
E|---------------------------------------------------------------------------|
  Spy on you......follow you.

Riff 1
E|---------------------------------------------------------------------------|
B|---------------------------------------------------------------------------|
G|---------------------------------------------------------------------------|
D|---------------------------------------------------------------------------|
A|--------------------66-4-6-66-4-6------------------------------------------|
E|---4-4-4-4-4-4-4-4---------------------------------------------------------|

Riff 2 (2x)
E|---------------------------------------------------------------------------|
B|------------------------------12-------------------------------------------|
G|---------------------------------------------------------------------------|
D|-------------------------11------------------------------------------------|
A|---9--111111-----9-11-9----------------------------------------------------|
E|---7--9-9-9----------------------------------------------------------------|
     Under     Investigation

Riff 3 (5x)
E|----------------------16-14------------------------------------------------|
B|----------11-12--------------16--------------------------------------------|
G|---11-13-------------------------------------------------------------------|
D|---------------------------------------------------------------------------|
A|---------------------------------------------------------------------------|
E|---------------------------------------------------------------------------|
     Hiding, Finding

Chord Break (2x)
E|---------------------------------------------------------------------------|
B|--14---6-------------------------------------------------------------------|
G|--11---10------------------------------------------------------------------|
D|-------8-------------------------------------------------------------------|
A|---------------------------------------------------------------------------|
E|---------------------------------------------------------------------------|
    Uh   Oh

E|---------------------------------------------------------------------------|
B|------------------------------12-------------------------------------------|
G|---------------------------------------------------------------------------|
D|-------------------------11------------------------------------------------|
A|---9--11-----9-11-9--------------------------------------------------------|
E|---7--9--------------------------------------------------------------------|
     Under     Investigation

Riff 4 (3x)
E|--------------------------------------------------------------------------|
B|--------------------------------------------------------------------------|
G|--------------------------------------------------------------------------|
D|----10--8--88-88------8-88-88------9--------------------------------------|
A|-------------------11-----------11----------------------------------------|
E|--------------------------------------------------------------------------|

E|---------------------------------------------------------------------------|
B|---------------------------------------------------------------------------|
G|--11-12-13-14--------------------------------------------------------------|
D|---------------11-9-14-12--------------------------------------------------|
A|---------------------------------------------------------------------------|
E|---------------------------------------------------------------------------|
   I've got all the information

Long Live Deerhoof!


| /  slide up
| \  slide down
| h  hammer-on
| p  pull-off
| ~  vibrato
| +  harmonic
| x  Mute note
===============================================================================
Related for Spy On You tab