Song name
# A B C D E F G H I J K L M N O P Q R S T U V W X Y Z

Deerhoof - 81 tab

  I was bored and since there are barely any Deerhoof tabs, I figured out the beginning 
of the new song +81. I don't know if there is actually a capo used because it sounds 
the notes go lower than the 8th fret later in the song but who knows.

Capo 8th Fret (tab relative to capo)


----------------------------------------------------------|
--------------------------0-(0)--3------------------------|
--------------------------0-(0)---------------------------|
-----2--4--2--5--2--4--2-----2----------------------------|
-----2--4--2--5--2--4--2----------------------------------|
-----0--0--0--0--0--0--0----------0-----------------------|

----------------------------------------------------------|
--------------------------0----(0)------------------------|
--------------------------0-(0)-0-------------------------|
-----2--4--2--5--2--4--2-----2--0-------------------------|
-----2--4--2--5--2--4--2--------3-------------------------|
-----0--0--0--0--0--0--0-------(0)------------------------|

If you want to add to it be my guest.
Tap to rate this tab
# A B C D E F G H I J K L M N O P Q R S T U V W X Y Z