Song name
# A B C D E F G H I J K L M N O P Q R S T U V W X Y Z

Deerhoof - Spirit Ditties Of No Tone tab

Help us improve GuitareTab! Take a short survey!
-------------------------------------------------------------------------------
			SPIRIT DITTIES OF NO TONE - Deerhoof
-------------------------------------------------------------------------------
Tabbed by: Matthew Cieplak
Email: matthewcieplak@fastmail.fm

//= slide
. = staccato

Intro - Part 1
e|-1---1-3-4--4---4-----8---9-7-------|
B|-1---1------6-----6-----------9-----|
G|-1---1------7-------7---------------|
D|------------------------------------|
A|------------------------------------|
E|------------------------------------|

Intro - Part 2
e|-0-0-0-0-0----------7----0--0--0--0--0--0--0--0--0---|
B|-7-9-9-7-7-----9-10------8--10-10-8--8--10-10-8--8---|
G|-8-8-8-8-8---8-----------11-11-11-11-11-11-11-11-11--|
d|-----------------------------------------------------|
a|-----------------------------------------------------|
e|-----------------------------------------------------|

Pre-Verse
e|--16.--12.--14-----|--10.--9.---12-----|--4.---5.---11-----|
B|--16.--14.--16-----|--12.--10.--12-----|--5.---5.---9--10--|
G|--16.--14.--16-----|--12.--11.--13-----|--6.---6.---11-----|
D|-------------------|-------------------|-------------------|
A|-------------------|-------------------|-------------------|
E|-------------------|-------------------|-------------------|

Verse - Part 1
e|---------------------------|-------------------------|
B|------------12----------12-|-----------14-14--14-----|
G|---------13----13----13----|---------14--------14----|
D|-------14---------14-------|-------14-----------14---|
A|--14-14--------------------|-12-12---------------12--|
E|---------------------------|-------------------------|
Verse - Part 2
e|-----------------------------|-----------------------------|
B|-------12-12---12------12----|------12-12---12-----12------|
G|------15-----15--15-----15---|-----14----14---14-----14----|
D|---16-------------16------16-|--16--------------16-----16--|
A|--/16------------------------|--14-------------------------|
E|-----------------------------|-----------------------------|
Verse - Part 3
e|---------------|-------14------|-----9------|---------------|
B|---------12----|------15---15--|---10--9----|---------------|
G|-------13---13-|---14-------14-|-9-----10---|---------------|
D|-----14--------|--12-----------|-11---------|---------------|
A|--14-----------|---------------|------------|---------------|
E|---------------|---------------|------------|-9-9-9-9-9-----|

Then play Verse Parts 1 and 2 with guitar solo.

Solo
e|-----------|-----------|-----------|-----------|
B|-----------|-----------|-----------|-----------|
G|---------9-|------9-10-|--11--9----|-----------|
D|--9---10---|--11-------|--------12-|-11--------|
A|-----------|-----------|-----------|-----------|
E|-----------|-----------|-----------|-----------|

Riff
e|----------19-----|----------19-----|----------19-----|-17.---17.16.----|
B|-12-//19----19---|-12-//19----19---|-12-//19----19---|-----19.-----19.-|
G|--------------16-|--------------16-|--------------16-|-----------------|
D|-----------------|-----------------|-----------------|-----------------|
A|-----------------|-----------------|-----------------|-----------------|
E|-----------------|-----------------|-----------------|-----------------|
Play the Riff 3 times, and skip the last bar on the third time.

Then, play the first 2 bars of the Pre-Verse 2 times (no bass the first time, with bass the 2nd).

Riff Version 2
(the same thing 2 frets higher)
e|----------21-----|----------21-----|----------21-----|-19.---19.17.----|
B|-14-//21----21---|-14-//21----21---|-14-//21----21---|-----21.-----19.-|
G|--------------18-|--------------18-|--------------18-|-----------------|
D|-----------------|-----------------|-----------------|-----------------|
A|-----------------|-----------------|-----------------|-----------------|
E|-----------------|-----------------|-----------------|-----------------|
Play 3 times

Intro Version 2 (Guitar)
e|-1---1-3-4--4---4-3-4---8----8----|
B|-1---1------6---6-------9----9----|
G|-1---1------7---7-------10---10---|
D|----------------------------------|
A|----------------------------------|
E|----------------------------------|

Then play the full intro.

Verse Version 2
e|--0-------0-------0-------0--|--0----2----0--------|
B|--0-------2-------0-------0--|--0----3----2--6-----|
G|--1-------2-------3-------2--|--1----2----2--6-----|
D|--2-------2-------4-------4--|--2----0----2--6-----|
A|--2-------0-------4-------2--|--2----0----0--4-----|
E|--0---------------2----------|--0------------------|
  EM      AM      F#11    B7    EM   DM   AM DbM

Play this verse twice, and add this guitar solo the second time.

Solo Version 2
e|-----------|-----------|-----------|-----------|-----------|-----------|
B|-----------|-----------|-----------|-----12-10-|--9--------|-----------|
G|---------9-|-----9--10-|-11---10---|-----------|-----11----|--9-10-----|
D|-9----10---|-11--------|--------12-|-11--------|-----------|-----------|
A|-----------|-----------|-----------|-----------|-----------|-----------|
E|-----------|-----------|-----------|-----------|-----------|-----------|
Related for Spirit Ditties Of No Tone tab