Song name
# A B C D E F G H I J K L M N O P Q R S T U V W X Y Z

Deerhunter - Never Stops tab

Never Stops
Deerhunter

Verse 1 and 2
e---------------------------------------|
B---------------------------------------|
G-----55-4444---------------------------|
D-----55-5555-----77-5555---------------|   X4
A-----------------77-7777---------------|
E--33-33-3333--00-00-0000---------------|

Chorus
e---------------------------------------|
B---------------------------------------|
G--55445544-----------------------------|
D--55555555----22222222-----------------|   X4
A--------------22222222-----------------|
E--33333333----00000000-----------------|

e---------------------------------------|
B-------------12-12-12-12-12-12-12-12---|
G--44444444-----------------------------|
D--55555555-----------------------------|   X2
A--55555555---10-10-10-10-10-10-10-10---|
E--33333333---8--8--8--8--8--8--8--8----|

e---------------------------------------|
B---------------------------------------|
G--44444444-----------------------------|
D-----------77777777--------------------|
A--22222222-77777777--------------------|
E--00000000-55555555--------------------|

or Guitar 2 plays:
e---------------------------------------|
B--12-12-12-12-12-12-12-12--------------|
G---------------------------------------|
D---------------------------------------|
A---------------------------------------|
E---------------------------------------|

e---------------------------------------|
B-12-12-12-12----11-12------------------|
G------------9-12-----------------------|
D---------------------------------------|
A---------------------------------------|
E---------------------------------------|
Tap to rate this tab
# A B C D E F G H I J K L M N O P Q R S T U V W X Y Z