Song name
# A B C D E F G H I J K L M N O P Q R S T U V W X Y Z

Deerhunter - Dr Glass tab

-Dr. Glass---------|
-----by Deerhunter-|
-------------------|    M17
Beginning.
guitar for bass-

e------------------------------------------|
B------------------------------------------|
G------------------------------------------|
D------------------------------------------|
A------------------------------------------|
E-10-10-10-5-7-10--------------------------|x2

e------------------------------------------|
B------------------------------------------|
G------------------------------------------|
D------------------------------------------|
A------------------------------------------|
E-8-8-8-5-7-8------------------------------|x2

e------------------------------------------|
B------------------------------------------|
G------------------------------------------|
D------------------------------------------|
A--------10-10--7-7------------------------|
E--10-10------------8-8--8-----------------|

Verse-
e------------------------------------------|
B------------------------------------------|
G----0-------------------------------------|
D--0----2---2------------------------------|
A--------3--3------------------------------|
E------------------------------------------|

then for the chorus-
e-0------0---------------------------------|
B-3------3---------------------------------|
G-2------0---------------------------------|
D-0(8x)--2---------------------------------|
A--------3---------------------------------|
E------------------------------------------|

thats pretty much it, have fun with it
Tap to rate this tab
 
# A B C D E F G H I J K L M N O P Q R S T U V W X Y Z