Deerhunter - Helicopter tab

-------------------------------------------------------------------------------
			     HELICOPTER - Deerhunter
-------------------------------------------------------------------------------
Tabbed by: Matt (ars3nalpromo)
Email: neonintercitymind@hotmail.com

Tuning: Standard

You guys can figure out how many times you need to repeat the verse and chorus. :D

VERSE:
e|---------16--17--16--14--11-------5-5-------11-11-------------------------|
B|---------17--17--17--16--12-------7-7-------12-12-------------------------|
G|--------------------------------------------------------------------------|
D|--------------------------------------------------------------------------|
A|--------------------------------------------------------------------------|
E|--------------------------------------------------------------------------|



CHORUS:
e|----------16----11-11----16-16----11-11-----------------------------------|
B|----------17----12-12----17-17----12-12-----------------------------------|
G|--------------------------------------------------------------------------|
D|--------------------------------------------------------------------------|
A|--------------------------------------------------------------------------|
E|--------------------------------------------------------------------------|

Lyrics:
(these are by ear, so accuracy is meh)

take my hand and pray with me
my final days in company
the devil now has come for me
and helicopters circle me, you'll see

and I pray for less
could you play for less
we know he loves you the best
we know he loves you the best

dull lights inside my cave
I'm tired of my pains

all these drugs they play
on me in these terrible ways
they don't ache like they used to ache
I used to make it day to day

no one cares for me
I keep no company
I have minimal needs
and now they are through with me

now they are through with me
Tap to rate this tab
 
# A B C D E F G H I J K L M N O P Q R S T U V W X Y Z