Song name
# A B C D E F G H I J K L M N O P Q R S T U V W X Y Z

Deerhunter - Helicopter tab

"Helicopter" by Deerhunter

Verse

E |---4---5---4---2-----------------------------------|
B |---5---5---5-------4-----(2)--(2)------4----4------|
G |---4---4---4-------4------2----2-------4----4------|
D |---------------------------------------------------|
A |---------------------------------------------------|
E |---------------------------------------------------|

Chorus

E |---4----------------4-----------------------|
E |---5------4---4-----5------4---4------------|
G |---4------4---4-----4------4---4------------|
D |----------2---2------------2---2------------|
A |--------------------------------------------|
E |--------------------------------------------|
Tap to rate this tab
 
# A B C D E F G H I J K L M N O P Q R S T U V W X Y Z