Deerhunter - Wash Off tab

-------------------------------------------------------------------------------
			     WASH OFF - Deerhunter
-------------------------------------------------------------------------------
Tabbed by: Gustavo Collado

Tuning: EADGBe


INTRO

e|-10r-7--10r-7r---7-7/8-/7-(7)-|
B|--9r-9------9r-9---9/10/9-----| [optional, this are just the very
G|-------0----------------------|  first seconds of random noise]
D|------------------------------|
A|------------------------------|
E|------------------------------|


VERSE 1

(We had some conflicts with prince Erudite...)
e|-7---10---|
B|---9----9-|
G|----------| X24
D|----------|
A|----------|
E|----------|

e|-------------|
B|-------------|
G|-------------| X6
D|-2-2-22-2222-|
A|-2-2-22-2222-|
E|-0-0-00-0000-|

e|-------------|
B|-9-9-9-9-9-9-|
G|-------------| 
D|-------------|
A|-------------|
E|-------------|


VERSE 2

(And in the parking lot of my high school, cheap acid...)
e|-7---10---|
B|---9----9-|
G|----------| X24
D|----------|
A|----------|
E|----------|

e|-------------|
B|-------------|
G|-------------| X6
D|-2-2-22-2222-|
A|-2-2-22-2222-|
E|-0-0-00-0000-|


OUTRO

e|-------------|
B|-------------|
G|-7-9-7-9-7-9-| [Repeat until the end]
D|-------------|
A|-------------|
E|-------------|

e|----|
B|----|
G|----| [Another guitar randomly plays this
D|-9r-| using a tremolo pedal (I think) with
A|-7r-| it's "depth level" set at maximum]
E|-7r-|
Tap to rate this tab
 
# A B C D E F G H I J K L M N O P Q R S T U V W X Y Z