Song name
# A B C D E F G H I J K L M N O P Q R S T U V W X Y Z

Deerhunter - Desire Lines tab

This is the only part I have figured out, but it's better than nothing.

When the outro solo part begins, you occasionally hear

e|-12-12--|
B|--------|
G|--------|
D|--------|
A|--------|
E|--------|

And then this part starts up

e|---------------------------------------------------|
B|-------------------------------------------10-10---|
G|---------------------------9-9-11-11-12-12---------|
D|-------7-7-9-9-10-10-12-12-------------------------|
A|-10-10---------------------------------------------|
E|---------------------------------------------------|


e|-------8-8-10-10-12-12-10-10-8-8-------------------|
B|-12-12---------------------------12-12-10-10----10-|
G|---------------------------------------------12----|
D|---------------------------------------------------|
A|---------------------------------------------------|
E|---------------------------------------------------|

And then after that goes like 4 times, 

e|------------------------|
B|-10---------10----------|
G|----12-9-12----12-9-12--|
D|------------------------|
A|------------------------|
E|------------------------|

And then this starts in again

e|-12-12--|
B|--------|
G|--------|
D|--------|
A|--------|
E|--------|
Tap to rate this tab
 
# A B C D E F G H I J K L M N O P Q R S T U V W X Y Z