Deerhunter - Desire Lines tab

From the album "Halcyon Digest" (4AD, 2010)
Standard Tuning

Intro & Verse:
Guitar I
e|------------------------------------------------------------------|
B|------------------------------------------------------------------|
G|------------------------------------------------------------------|
D|------------------------------------------------------------------|
A|---------77777777--------77777777--------77777777-55555555--------|
E|-33333333--------33333333--------33333333-----------------55555555|

Guitar II
e|--------------------------------------------------12--------------|
B|----------------------------------------------------------12------|
G|------------------------------------------------------------------|
D|------------------------------------------------------------------|
A|------------------------------------------------------------------|
E|------------------------------------------------------------------|


e|------------------------------------------------------------------|
B|------------------------------------------------------------------|
G|-12-12-11-11------------------------------------------------------|
D|------------12-12-11-11-------------------------------------------|
A|------------------------12-12-11-11-------------------------------|
E|------------------------------------12-12-12----------------------|
x3,
then:
e|------------------------------------------------------------------|
B|------------------------------------------------------------------|
G|------------------------------------------------------------------|
D|------------------------------------------------------------------|
A|------------------------------------------------------------------|
E|-14-14-14-14-14-14-14-14-9-9-9-9-9-9-9-9--------------------------|


Chorus:
C G D A

e|--3--3--3---------------5--5--5-----------------------------------|
B|---5--5------3--3--3-----7--7------5--5--5------------------------|
G|--------------4--4------------------6--6--------------------------|
D|------------------------------------------------------------------|
A|-3--3--3---------------5--5--5------------------------------------|
E|------------3--3--3---------------5--5--5-------------------------| x4

Repeat Verse and Chorus, then...

Interlude:
Guitar I
e|------------------------------------------------------------------|
B|------------------------------------------------------------------|
G|------------------------------------------------------------------|
D|------------------------------------------------------------------|
A|---------55555555--------77777777-33333333------------------------|
E|-33333333--------55555555-----------------------------------------| Repeat

Guitar II
e|----------------------------12-12-12-12-------------12-12-12-12---|
B|----------------------------------------12-12-12-12---------------|
G|------------------------------------------------------------------|
D|------------------------------------------------------------------|
A|------------------------------------------------------------------|
E|------------------------------------------------------------------|
                              |slightly palm muted..................|

e|-----------------------------77-88-1010-1212-1010-88-77-55--5--5--|
B|------------------77-88-1010------------------------------8^-8^-8^|
G|---------55-77-99-------------------------------------------------|
D|55-77-99----------------------------------------------------------|
A|------------------------------------------------------------------|
E|------------------------------------------------------------------| X4

e|---------------------------------------------------------------------|
B|-10----------10------------------------------------------------------|
G|----12-9-12----12-9-12-----------------------------------------------|
D|---------------------------------------------------------------------|
A|---------------------------------------------------------------------|
E|---------------------------------------------------------------------| Repeat

e|-------12-------12------------------------------------------------|
B|-10--------10-----------------------------------------------------|
G|----12--------12--------------------------------------------------|
D|------------------------------------------------------------------|
A|------------------------------------------------------------------|
E|------------------------------------------------------------------| Repeat

e|------------------------------------------------------------------|
B|------------------------------------------------------------------|
G|-979797979797-----------------------------------------------------|
D|------------------------------------------------------------------|
A|------------------------------------------------------------------|
E|------------------------------------------------------------------| Repeat

Comments or corrections welcome, and let me know if there's any other Deerhunter songs 
want a tab for.
Tap to rate this tab
 
# A B C D E F G H I J K L M N O P Q R S T U V W X Y Z