Song name
# A B C D E F G H I J K L M N O P Q R S T U V W X Y Z

Deerhunter - Desire Lines tab

Song: DESIRE LINES
Artist: Deerhunter
Album: "Halcyon Digest" [2010]

Tabbed by: Devin Miller

Tuning: Standard EADGBe

========================================================================

INTRO/VERSE

Rhythm guitar:

e|-----------------|-------------------------|
B|-----------------|-------------------------|
G|-----------------|-------------------------|
D|-5-5-5-5-5-5-5-5-|-14-14-14-14-14-14-14-14-|
A|-x-x-x-x-x-x-x-x-|--x--x--x--x--x--x--x--x-|
E|-3-3-3-3-3-3-3-3-|-12-12-12-12-12-12-12-12-| x3

e|-------------------------|-----------------|
B|-------------------------|-----------------|
G|-------------------------|-----------------|
D|-12-12-12-12-12-12-12-12-|-7-7-7-7-7-7-7-7-|
A|--x--x--x--x--x--x--x--x-|-x-x-x-x-x-x-x-x-|
E|-10-10-10-10-10-10-10-10-|-5-5-5-5-5-5-5-5-| x1

Guitar riff:

e|---------------------------------------------|
B|---------------------------------------------|
G|-12-12-11-11---------------------------------|
D|-------------12-12-11-11---------------------|
A|-------------------------12-12-11-11-s7-7-7--|
E|---------------------------------------------| x3

e|----------------------------------|
B|----------------------------------|
G|----------------------------------|
D|----------------------------------|
A|-9-9-9-9-9-9-9-9-s4-4-4-4-4-4-4-4-|
E|----------------------------------| x1


CHORUS

e|---3-----3-----3-|-----------------|---5-----5-----5-|-----------------|
B|-----5-----5-----|---3-----3-----3-|-----7-----7-----|---5-----5-----5-|
G|-------5-----5---|-----4-----4-----|-------7-----7---|-----6-----6-----|
D|-----------------|-------5-----5---|-----------------|-------7-----7---|
A|-3---------------|-----------------|-5---------------|-----------------|
E|-----------------|-3---------------|-----------------|-5---------------|


REPEAT VERSE & CHORUS


MIDDLE SONG JAM

e|-----------------|-------------------------|-----------------|
B|-----------------|-------------------------|-----------------|
G|-----------------|-------------------------|-----------------|
D|-5-5-5-5-5-5-5-5-|-12-12-12-12-12-12-12-12-|-7-7-7-7-7-7-7-7-|
A|-x-x-x-x-x-x-x-x-|--x--x--x--x--x--x--x--x-|-x-x-x-x-x-x-x-x-|
E|-3-3-3-3-3-3-3-3-|-10-10-10-10-10-10-10-10-|-5-5-5-5-5-5-5-5-|

  -------------------------|-------------------------|
  -------------------------|-------------------------|
  -------------------------|-------------------------|
  -14-14-14-14-14-14-14-14-|-10-10-10-10-10-10-10-10-|
  --x--x--x--x--x--x--x--x-|--x--x--x--x--x--x--x--x-|
  -12-12-12-12-12-12-12-12-|--8--8--8--8--8--8--8--8-| repeat

Guitar riff that comes in overtop:

e|-----------------------|--------------------|-------------------10-10-|
B|-----------------------|--------------------|-10-10-12-12-13-13-------|
G|-----------------------|-------9-9-11-12-12-|-------------------------|
D|-------------9-9-10-10-|-12-12--------------|-------------------------|
A|-10-10-12-12-----------|--------------------|-------------------------|
E|-----------------------|--------------------|-------------------------|

  -12-12-10-10-------------|---------------------------------|
  -------------13-13-12-12-|-10-10------10-----10-----10\----|
  -------------------------|-------13b15--13b15--13b15-------|
  -------------------------|---------------------------------|
  -------------------------|---------------------------------|
  -------------------------|---------------------------------| x4

Then...

e|-------0-----|
B|-10----------|
G|----12----12-|
D|-------------|
A|-------------|
E|-------------| x20

Then...

e|-------12----|
B|-10-------12-|
G|----12-------|
D|-------------|
A|-------------|
E|-------------| x20

Then...

e|-------0----------12----|
B|-12---------12----------|
G|----14---14----14----14-|
D|------------------------|
A|------------------------|
E|------------------------| x20

Then...

e|-------0---|
B|---5-------|
G|-7---7---7-|
D|-----------|
A|-----------|
E|-----------| play till fade out........


************************************

| /   slide up
| \   slide down
| h   hammer-on
| p   pull-off
| ~   vibrato
| +   harmonic
| x   Mute note
| b   Bend
| pb  Pre-bend
| br  Bend release
| pbr Pre-bend release
| brb Bend release bend

************************************
Tap to rate this tab
 
# A B C D E F G H I J K L M N O P Q R S T U V W X Y Z