Song name
# A B C D E F G H I J K L M N O P Q R S T U V W X Y Z

Deerhunter - Calvary Scars tab

-----------------------------------------------------------------------------
			     CALVARY SCARS - Deerhunter
-----------------------------------------------------------------------------
Tabbed by:  Jealous Guy
Email:  Clockwork_Scientist@live.com

Tuning:  EADGBe

The song is incredibly easy, and it's a little redundant to even post a tab, but oh well.

Finger-pick the intro, it's super simple to figure out if you listen to the song.

Verse:

e|-------------------------------|
B|--------------------7-------7--|
G|8-------8-------8-------8------|
D|--9---9---9---9---9---9---9---9|
A|----9-------9------------------|
E|7-------7-------7-------7------|
This is played slowly, repeatedly, and liberally throughout the verse.  You can really 
play anything on the barre B chord.


B
Crucified on a cross in front of all my closest friends.

Crucified on a cross in front of all my closest--


Chorus (if you can call it that):

     F#     B       F#       B      E        B       E       B
Ah--ah, ah--ah, ah--ah, ah--ah, ah--ah, ah--ah, ah--ah, ah--ah


Song transitions into Green Jacket.


************************************

| /   slide up
| \   slide down
| h   hammer-on
| p   pull-off
| ~   vibrato
| +   harmonic
| x   Mute note
| b   Bend
| pb  Pre-bend
| br  Bend release
| pbr Pre-bend release
| brb Bend release bend

************************************
Tap to rate this tab
# A B C D E F G H I J K L M N O P Q R S T U V W X Y Z