Song name
# A B C D E F G H I J K L M N O P Q R S T U V W X Y Z

Deerhunter - Desire Lines tab

Desire Lines

Bradford (Guitar 1):
Intro
e--12-----------------------------------------|
B--12-----------------------------------------|
G--12-----------------------------------------|
D--12-Harmonics to open the song--------------|
A--12-----------------------------------------|
E--12-----------------------------------------|
intro and verse
e---------------------------------   e-----------------------|
B--8-8-7-7------------------------   B-----------------------|
G---------7-7-6-6-----------------   G--7--------------------|
D----------------7-7-6-6----------   D----x8-7---------------|
A------------------------7-7-7----   A--5------x8------------|
E---------------------------------x3 E-------5---------------|
Chorus
e--3---3----------------5---5-------------------|
B---5---5-5---3---3------7---7-7---5---5--------|
G----5---5-----4---4-4----7---7-----6---6--6----|
D---------------5---5----------------7---7------|x4
A-----------------------------------------------|
E-----------------------------------------------|
jam/ending
   G   D   A   E   C
e-------------------------------------------|
B-------------------------------------------|
G------7-------9---5------------------------|
D--5----x8-7----x8--x8----------------------|
A---x8-5----x8-7---3------------------------|
E--3-------5--------------------------------|

and then eventually:

e-----0--|
B---5----|
G--7-7---| until end of song
D--------|
A--------|
E--------|

Lockett (Guitar 2):
Intro and verses
e----------------    e--------------|
B----------------    B--------------|
G----------------    G--7-----------|
D--5---14--------    D---x8-7-------|
A---x8---x8------    A--5----x8-----|
E--3---12-------- x3 E------5-------|
Chorus
   C    G    D    A
e--3----3----5----5-------------|
B--5----3----7----5-------------|
G--5----4----7----6-------------|
D--5-x8-5-x8-7-x8-7-x8----------|
A--3----5----5----7-------------|
E-------3---------5-------------|
Jam/Ending/Solo
e------------------------------------------------------10-10-12-12-10-10-|
B-------------------------------------10-10-12-12-13-13------------------|
G----------4-4-5-5-7-7-9-9-11-11-12-12-----------------------------------|
D--5-5-7-7---------------------------------------------------------------|
A------------------------------------------------------------------------|
E------------------------------------------------------------------------|

e-------------------------------------------|
B--13-13-12-12-10-10--10--10----------------|
G-------------------12--12--12--------------|
D-------------------------------------------|
A-------------------------------------------|
E-------------------------------------------|x4

e--------0---                  e--------0--|
B----10------                  B----12-----|
G--12--12----                  G--14--14---|
D------------                  D-----------|
A------------                  A-----------|
E------------ which loops over E-----------|

Joshua(Bass):
intro and verse
G--------------    G------------------|
D--------------    D------------------|
A--------------    A--5-x8------------|
E--3-x8-12-x8-- x3 E------5-x8--------|

chorus
G-----------------------------------------|
D-----------------------------------------|
A--3-x8-----5-x8--------------------------|
E------3-x8-----5-x8----------------------| x4

jam/ending
G-----------------------------------------|
D-----------------------------------------|
A-------5-x8-----7-x8--3-x8---------------|
E--3-x8-----5-x8--------------------------|

Then eventually..
G-----------------------------------------|
D--------------------4----4-4-------------|
A------2------2---5-5-5-5----5------------|
E--3-3--3-3-3--3--------------------------|

G-----------------------------------------|
D------------------6---6-6-----2---2-2----|
A-----4-----4---7-7-7-7---7-3-3-3-3---3---|
E--5-5-5-5-5-5----------------------------|
repeat until end of song.
Tap to rate this tab
# A B C D E F G H I J K L M N O P Q R S T U V W X Y Z