Song name
# A B C D E F G H I J K L M N O P Q R S T U V W X Y Z

Deerhunter - Monomania tab

Monomania
By Deerhunter


Play preferably all on barre chords except the E.

Part one

Dm         Gm             Bm        E
  my only boy couldn't leave his name [bewildered]
Dm      Gm    Bm       E
come on boy let me say that a
Dm      Gm    Bm         E
 if you wanna be with me yeah
Dm     Gm      Bm       E
 i can be your home away

(same as previous verse.) Dm   Gm   Bm   E

come on god hear my said prayer
if you can't send me an angel
if you can't send me an angel
send me something else instead

Part two

 Em                      B
   send my heart to the sea
 Em               B
   oh the empty sea
               Gm    Bm     E
but there's a light in the core
               Gm    Bm     E
and there's nothing left no more
no more no

(Same as previous verse.) Em - B then Gm Bm E

if you can't choose me
then you can't see
there's a light in my heart
and it' won't be there tomorrow

Part 4

Bass Only //// And arpeggio in the background that I won't tab. It's the same as the 
first verse.

E------------------------------------------------------------|
B------------------------------------------------------------|
G------------------------------------------------------------|
D------------------------------------------------------------|
A---5-5-5-0--------------------------------------------------|
E------------3-3-3-0--5/7-7-7-7--0-0-0-0---------------------|


there's a man
there is a mystery whore
and in my dying days
i could never be sure

well never mind
and then they take me away
and then they take you away
they'll never take me away

and in my head
there is something rotting dead
i can't compete with her
let me be released from this

Part 5

Chords: Cm# Gm# A Fm#/Em

Lead Guitar:

E------------------------------------------------------------|
B------------------------------------------------------------|
G---66--44--11--2-4------------------------------------------|
D--------------------77--44--22------------------------------|
A--------------------------------44--------------------------|
E------------------------------------------------------------|

mono-monomania (repeated)

End
Tap to rate this tab
# A B C D E F G H I J K L M N O P Q R S T U V W X Y Z