Song name
# A B C D E F G H I J K L M N O P Q R S T U V W X Y Z

Deerhunter - Thm tab

-------------------------------------------------------------------------------
                             THM - Deerhunter
                From the album "Monomonomania"
-------------------------------------------------------------------------------

====== VERSE 1 ======
(0:00-0:46)
e-12p9---12p9--12---14p11----14p11--14----7h4-----7h4--7---7h4-----7h4--7----|
B-------9-----------------11------------------4----------------4-------------|
G----------------------------------------------------------------------------|
D----------------------------------------------------------------------------|
A------------------------Play this part six times----------------------------|
E-----------------Vocals come in on the third playthrough--------------------|

====== CHORUS (Instrumental) ======
(0:48-1:17)
e------------------------------------------------|
B------10-10-10-9-9-9-12-12-14-9-7-7------------|
G------------------------------------------------|
D------------------------------------------------|
A-----------Play this three times----------------|
E------------------------------------------------|

====== Verse 2 ======
(1:18-2:02)
e-12p9---12p9--12---14p11----14p11--14----7h4-----7h4--7---7h4-----7h4--7----|
B-------9-----------------11------------------4----------------4-------------|
G----------------------------------------------------------------------------|
D----------------------------------------------------------------------------|
A------------------------Play this part six times----------------------------|
E------------------Vocals start on the third playthrough---------------------|

====== CHORUS ======
(2:03-3:02)
e------------------------------------------------|
B-----10-10-10-9-9-9-12-12-14-9-7-7-------------|
G------------------------------------------------|
D------------------------------------------------|
A-----------Play this eight times----------------|
E------------------------------------------------|


====== Verse 3 ======
(3:03-3:48)
e-12p9---12p9--12---14p11----14p11--14----7h4-----7h4--7---7h4-----7h4--7----|
B-------9-----------------11------------------4----------------4-------------|
G----------------------------------------------------------------------------|
D----------------------------------------------------------------------------|
A-------------Repeated-------------------------------------------------------|
E----------------------------------------------------------------------------|

====== CHORUS ======
(3:48-4:20)
e------------------------------------------------|
B-----10-10-10-9-9-9-12-12-14-9-7-7-------------|
G------------------------------------------------|
D------------------------------------------------|
A-----------Play this eight times----------------|
E------------------------------------------------|
Tap to rate this tab
 
# A B C D E F G H I J K L M N O P Q R S T U V W X Y Z