Song name
# A B C D E F G H I J K L M N O P Q R S T U V W X Y Z

Deerhunter - Thm tab

Here's an improved version of 'T.H.M.' 
Thanks to hitmewithmuzak for the initial post. 
I'm simply building upon the previous tab.
I'll be posting more tabs from Monomania soon!

Verse
Both Guitars
e|---12----12----12---14----14----14---7--7--7---7--7--7-|
B|-----14----14---------16----16--------9--9------9--9---|
G|-------13----13---------15----15-------8--8------8--8--|
D|-------------------------------------------------------|
A|-------------------------------------------------------|
E|-------------------------------------------------------|

Chorus
Guitar 1
e|------------------------------------------------|
B|-----10-10-10-9-9-9-12-12-14\9-7-7--------------|
G|------------------------------------------------|
D|------7--7--7-6-6-6--9--9-11\6-4-4--------------|
A|------------------------------------------------|
E|------------------------------------------------|
     (Lower note octaves are optional)

Chorus
Guitar 2
e|------------------------------------------------|
B|---------10-----9-----12------------------------|
G|---------11-x8--9-x8--11-x16--------------------|
D|------------------------------------------------|
A|------------------------------------------------|
E|------------------------------------------------|
      Play rapidly without letting notes ring 
   (Count as 1, 2, 3, 1, 2, 3, 1, 2 when playing)

That's all! 
Just follow the structure of the song 
Some verses/choruses are longer than others.
Enjoi!
Tap to rate this tab
 
# A B C D E F G H I J K L M N O P Q R S T U V W X Y Z