Song name
# A B C D E F G H I J K L M N O P Q R S T U V W X Y Z

Deerhunter - Monomania tab

Deerhunter - Monomania


Part 1:

Rhythm guitar (repeat twice):

    D               G             Bm              E
e|-----------------------------------------------------------|
B|--7----7-------3--3--3-------7-------7-------0--0--0--0----|
G|--7----7-------4--4--4-------7-------7-------1--1--1--1----|
D|--7----7-------5--5--5-------9-------9-------2--2--2--2----| x 3
A|--5----5-------5--5--5-------9-------9-------2--2--2--2----|
E|---------------3--3--3-------7-------7-------0--0--0--0----|

    D            G          Bm
e|-------------------------------------------------------|
B|--7----7-------3--3--3----7-------7-------7--7--7--7---|
G|--7----7-------4--4--4----7-------7-------7--7--7--7---|
D|--7----7-------5--5--5----9-------9-------9--9--9--9---|
A|--5----5-------5--5--5----9-------9-------9--9--9--9---|
E|---------------3--3--3----7-------7-------7--7--7--7---|

    E                     E                                 x 1`
e|--------------------------------------------------------|
B|--0----0----0--0--0--0--0--0--0--0--0--0--0--0----------|
G|--1----1----1--1--1--1--1--1--1--1--1--1--1--1----------|
D|--2----2----2--2--2--2--2--2--2--2--2--2--2--2----------| 
A|--2----2----2--2--2--2--2--2--2--2--2--2--2--2----------|
E|--0----0----0--0--0--0--0--0--0--0--0--0--0--0----------|

Lead guitar:

e|-------------------------------------------------------------|
B|-------------------------------------------------------------|
G|--------7--7-------------------7--7--------------------------|
D|--9--9--------7--7--6--7--9--9-------7--6--------------------| x 3
A|-------------------------------------------9--7--------------|
E|-------------------------------------------------------------|

First Ending:

e|-------------------------------------------------------------|
B|-------------------------------------------------------------|
G|--------7--7------------------------7-----7------------------|
D|--9--9--------7--7--6--7--9----9-------9-----9---------------|
A|-------------------------------------------------------------|
E|-------------------------------------------------------------|

e|-------------------------------------------------------------|
B|-------------------------------------------------------------|
G|-------------------------------------------------------------|
D|--2----2----2--2--2--2--2--2--2--2--2--2--2--2---------------|
A|-------------------------------------------------------------|
E|-------------------------------------------------------------|

Second ending:

e|-------------------------------------------------------------|
B|-------------------------------------------------------------|
G|--------7--7------------------------7-----7------------------|
D|--9--9--------7--7--6--7--9----9-------9-----9---------------|
A|-------------------------------------------------------------|
E|-------------------------------------------------------------|


e|-------------------------------------------------------------|
B|--5----5----5--5--5--5--5--5--5--5--5--5--5--5---------------|
G|--7b9--7b9-b9-b9-b9-b9-b9-b9-b9-b9-b9-b9-b9-b9---------------|
D|-------------------------------------------------------------|
A|-------------------------------------------------------------|
E|-------------------------------------------------------------|


Part 2

Rhythm guitar:

    E                     A
e|-------------------------------------------------|
B|--0----0----0--0--0--0---------------------------|
G|--1----1----1--1--1--1--6----6----6--6--6--6-----|
D|--2----2----2--2--2--2--7----7----7--7--7--7-----|x 2
A|--2----2----2--2--2--2--7----7----7--7--7--7-----|
E|--0----0----0--0--0--0--5----5----5--5--5--5-----|

    G#           B        E
e|-------------------------------------------------|
B|--4----4----4--7--7--7--0----0----0--0--0--0-----|
G|--4----4----4--8--8--8--1----1----1--1--1--1-----|
D|--6----6----6--9--9--9--2----2----2--2--2--2-----|x 2
A|--6----6----6--9--9--9--2----2----2--2--2--2-----|
E|--4----4----4--7--7--7--0----0----0--0--0--0-----|

Lead guitar:

e|--------------------------------------------------|
B|--5----5----5--5--5--5--7----7----7--7--7--7--7---|
G|--7b9--7b9-b9-b9-b9-b9-b9---b9---b9-b9-b9-b9-b9---|
D|--------------------------------------------------|x 2
A|--------------------------------------------------|
E|--------------------------------------------------|

e|------------------------------------------------------|
B|--------------------------------------7------7--------|
G|--11----11----11-13-13-13---9----9-------9------9-----|
D|------------------------------------------------------|x 2
A|------------------------------------------------------|
E|------------------------------------------------------|






Part 3

Rhythm guitar:

    D           G           A
e|-----------------------------------------------------|
B|--7--7--7--7--3--3--3--3--5--5--5--5--5--5--5--5-----|
G|--7--7--7--7--4--4--4--4--6--6--6--6--6--6--6--6-----|
D|--7--7--7--7--5--5--5--5--7--7--7--7--7--7--7--7-----|x 12
A|--5--5--5--5--5--5--5--5--7--7--7--7--7--7--7--7-----|
E|--------------3--3--3--3--5--5--5--5--5--5--5--5-----|


Lead guitar:

e|-------------------------------------------------------------|
B|-------------------------------------------------------------|
G|--11~-----12-11--11-7-7-9-11--------12-11--11-7-7-9-11-------| 
D|------------------------------7--7---------------------7--7--|etc
A|-------------------------------------------------------------|
E|-------------------------------------------------------------|


Part 4 (repeat until end)

Rhythm guitar:

    Bm                    E
e|-------------------------------------------------|
B|--7----7----7--7--7--7--0----0----0--0--0--0-----|
G|--7----7----7--7--7--7--1----1----1--1--1--1-----|
D|--9----9----9--9--9--9--2----2----2--2--2--2-----|
A|--9----9----9--9--9--9--2----2----2--2--2--2-----|
E|--7----7----7--7--7--7--0----0----0--0--0--0-----|

    D                     A         A#
e|-------------------------------------------------|
B|--7----7----7--7--7--7--5----5----6----6---------|
G|--7----7----7--7--7--7--6----6----7----7---------|
D|--7----7----7--7--7--7--7----7----8----8---------|
A|--5----5----5--5--5--5--7----7----8----8---------|
E|------------------------5----5----6----6---------|

Lead guitar:

e|-------------------------------------------------|
B|-------------------------------------------------|
G|--6----4----1----2--4--2-------------------------|
D|----------------------------4----2---------------|
A|--------------------------------------4----------|
E|-------------------------------------------------|
Tap to rate this tab
# A B C D E F G H I J K L M N O P Q R S T U V W X Y Z