Song name
# A B C D E F G H I J K L M N O P Q R S T U V W X Y Z

Deerhunter - Backspace Century tab

Backspace Century by Deerhunter:

Here's the first chord, try picking patterns to get the right picking pattern, but
I'll try to tab the picking pattern for what I think is right:

Order goes as follows:

Chord # 1: D Maj Voicing

E|--0--
B|--5--
G|--5--
D|--0--
A|-----
E|-----

Same Chord with Picking Pattern

E|--------------0-----------|
B|--------5--------5-----5--|
G|-----5-----5--------5-----|
D|--0-----------------------|
A|--------------------------|
E|--------------------------|

Chord # 2:  E Maj Voicing

E|--0--
B|--7--
G|--7--
D|--0--
A|-----
E|-----

2nd Chord with picking pattern:

E|--------------0-----------|
B|--------7--------7-----7--|
G|-----7-----7--------7-----|
D|--0-----------------------|
A|--------------------------|
E|--------------------------|


Chord # 3: G Maj Voicing

E|--0--
B|--3--
G|--4--
D|--0--
A|-----
E|-----

3rd Chord with picking pattern

E|--------------0-----------|
B|--------3--------3-----3--|
G|-----4-----4--------4-----|
D|--0-----------------------|
A|--------------------------|
E|--------------------------|



Another guitar in the background during the whole song is going like:

E|-----------|
B|-----------|
G|-----4-----|
D|--2-----5--|
A|-----------|
E|-----------|

That's it! Turn up the reverb, crank your gain, and have fun!
Tap to rate this tab
 
# A B C D E F G H I J K L M N O P Q R S T U V W X Y Z