Song name
# A B C D E F G H I J K L M N O P Q R S T U V W X Y Z

Deerhunter - Spring Hall Convert tab

Artist:Deerhunter
Album:Cryptograms
Song:Spring Hall Convert

Tabbed by "BAxelson"


Intro

e ---------------- ---------------- ---------------- ----------------|
B ---------------- ---------------- ---------------- ----------------|
G ---------------- ---------------- ---------------- ----------------|
D ---------------- --3------------- ---------------- ----------------|
A 7--------------- 5--------------- --5------------- ----------------|
E ---------------- ---------------- 3--------------- ----------------|

e ---------------- ---------------- ---------------- ----------------|
B ---------------- ---------------- ---------------- ----------------|
G ---------------- ---------------- ---------------- ----------------|
D --5------------- --3------------- ---------------- ----------------|
A 7--------------- 5--------------- --5------------- ----------------|
E ---------------- ---------------- 3--------------- ----------------|

Verse 1

e ---------------- ---------------- ---------------- ----------------|
B ---------------- ---------------- ---------------- ----------------|
G ---------------- ---------------- ---------------- ----------------|
D --9-----9---9--- --7-----7---7--- ---------------- ----------------|
A 7-----7---7---7- 5-----5---5---5- ----5---5---5--- 5---5---5---5---|
E ---------------- ---------------- 3--------------- ----------------|

e ---------------- ---------------- ---------------- ----------------|
B ---------------- ---------------- ---------------- ----------------|
G ---------------- ---------------- ---------------- ----------------|
D --9---9---9---9- --7---7---7---7- ---------------- ----------------|
A 7---7---7---7--- 5---5---5---5--- --5---5---5---5- --5---5---5---5-|
E ---------------- ---------------- 3--------------- ----------------|

Verse 2

Guitar 1
e ---------------- ---------------- ---------------- ----------------|
B ---------------- ---------------- ---------------- ----------------|
G ---------------- ---------------- ---------------- ----------------|
D ---------------- 5-5-5-5-5-5-5-5- 6-6-6-6-6-6-6-6- 7-7-7-7-7-7-7-7-|
A 5-5-5-5-5-5-5-5- 3-3-3-3-3-3-3-3- 4-4-4-4-4-4-4-4- 5-5-5-5-5-5-5-5-|
E 3-3-3-3-3-3-3-3- ---------------- ---------------- ----------------|

Guitar 2
e ----9-------10-- ----7-------7--- ----9-------10-- ----7-------7---|
B --7------------- --5------------- --7------------- --5-------------|
G 9---------9----- 7---------7----- 9---------9----- 7---------7-----|
D ---------------- ---------------- ---------------- ----------------|
A ---------------- ---------------- ---------------- ----------------|
E ---------------- ---------------- ---------------- ----------------|


http://www.myspace.com/deerhunter
Tap to rate this tab
# A B C D E F G H I J K L M N O P Q R S T U V W X Y Z