Song name
# A B C D E F G H I J K L M N O P Q R S T U V W X Y Z

Deerhunter - Strange Lights tab

Deerhunter
"Strange Lights"
Crytograms
2007 Kranky


Starts off:
 E|------------------|
 B|------------------|
 G|--9-9-9-9-9-9-9-9-| X 4 (32 strums)
 D|--9-9-9-9-9-9-9-9-|
 A|--7-7-7-7-7-7-7-7-|
 E|------------------|


  Verse:
What direction should we choose...
 E|--------------------------|
 B|--12-12-12-12-12-12-12-12-|
 G|--13-13-13-13-13-13-13-13-|
 D|--14-14-14-14-14-14-14-14-| X 2 (16 strums)
 A|--14-14-14-14-14-14-14-14-|
 E|---0--0--0--0--0--0--0--0-|
We're lost and still confused...
 E|--7--7--7--7--7--7--7--7-|
 B|--7--7--7--7--7--7--7--7-|
 G|--8--8--8--8--8--8--8--8-|
 D|--9--9--9--9--9--9--9--9-| X 2 (16 strums)
 A|--9--9--9--9--9--9--9--9-|
 E|--7--7--7--7--7--7--7--7-|
I walk into the sun...
 E|--5--5--5--5--5--5--5--5-| 
 B|--5--5--5--5--5--5--5--5-|
 G|--6--6--6--6--6--6--6--6-| X 4 (32 strums)
 D|--7--7--7--7--7--7--7--7-|
 A|--7--7--7--7--7--7--7--7-|
 E|--5--5--5--5--5--5--5--5-|
 Play the verse repeatedly until about 2:14.

 Then play this till the song's over.
 E|------------------|
 B|------------------|
 G|--9-9-9-9-9-9-9-9-|
 D|--9-9-9-9-9-9-9-9-|
 A|--7-7-7-7-7-7-7-7-|
 E|--0-0-0-0-0-0-0-0-|


Thanks! Rate it! Enjoy! :D
Tap to rate this tab
# A B C D E F G H I J K L M N O P Q R S T U V W X Y Z