Song name
# A B C D E F G H I J K L M N O P Q R S T U V W X Y Z

Deez Nuts - Bf And Ff tab

Artist - DEEZ NUTS
Tuning - Drop b
Song - BF & FF

  MAIN RIFF
|--------------------------------------------------------------------------|
|--------------------------------------------------------------------------|
|------------5-------------------------------------------------------------|  
|----3--0-0--5--4--0-0--4-2--0-0--2--0-0--2--5--0-0--4-2--0-0--------------|
|----3--0-0--3--4--0-0--4-2--0-0--2--0-0--2--5--0-0--4-2--0-0--------------|
|----3--0-0-----4--0-0--4-2--0-0--2--0-0--2--5--0-0--4-2--0-0--------------|
         . .        . .       . .     . .        . .       . .
  TAIL
|---------------------------|
|---------------------------|
|---------------------------|
|--2-0-2-0-5~--5-5555--(4)~-|
|--2-0-2-0-5~--5-5555--(4)~-|
|--2-0-2-0-5~--5-5555--(4)~-|

 
|--------------------------------------------------------------------------|
|--------------------------------------------------------------------------|
|--------------------------------------------------------------------------|
|--------------------------------------------------------------------------|
|--------------------------------------------------------------------------|
|--4-4-4-4-4-4-4-4-4-4-4-4/10-10-10-10-9-9-9-9-9-9-9-9-9-9-9-9-------------|
    . . . . . . . . . . . .  .  .  .  . . . . . . . . . . . . .


|--------------------------------------------------------------------------|
|--------------------------------------------------------------------------|
|--------------------------------------------------------------------------|
|--------------------------------------------------------------------------|
|--4-4-4-4-4-4-4-4-4-4-4-4/10-10-10-10-9-9-9-9-9-9-9-9-9-9-9-9-------------|
|--4-4-4-4-4-4-4-4-4-4-4-4/10-10-10-10-9-9-9-9-9-9-9-9-9-9-9-9-------------|

   





www.myspace.com/deeznutshardcore


Tap to rate this tab
 
# A B C D E F G H I J K L M N O P Q R S T U V W X Y Z