Song name
# A B C D E F G H I J K L M N O P Q R S T U V W X Y Z

Deez Nuts - Tonight Were Gonna Party Like Theres No Tomorrow tab

	Tonight We're Gonna Party Like There's No Tomorrow - Deez Nuts


Tabbed by: Me, Matthew
Song: Tonight We're Gonna Party - Deez Nuts
Album: Stay True

Tuning: Drop C (CGCFAD)

Intro
d|------------------------------------------------------------------------|
A|------------------------------------------------------------------------|
F|------------------------------------------------------------------------|
C|------------------------------------------------------------------------|
G|--0----0----0----0------------------------------------------------------|
C|--0----0----0----0------------------------------------------------------|


For this part, I just put the notes, listen to the song for the proper strumming 
it's pretty easy

d|------------------------------------------------------------------------|
A|------------------------------------------------------------------------|
F|------------------------------------------------------------------------|
C|------------------------------------------------------------------------|
G|--0--8--3--7--8--10--11--12--\-3-/-8--3--7--8--9--10--11--12--0--0--0---|
C|--0--8--3--7--8--10--11--12--\-3-/-8--3--7--8--9--10--11--12--0--0--0---|

Verse
d|---------------------------------------------------------|
A|---------------------------------------------------------|
F|---------------------------------------------------------|
C|--77-777-7-----------------------------------------------|
G|--55-555-5--33-333-3--88-888-77-5555-7777----------------|
C|------------33-333-3--88-888-77-5555-7777----------------|

Verse (Continued)
d|---------------------------------------------------------|
A|---------------------------------------------------------|
F|---------------------------------------------------------|
C|--77-777-7-----------------------------------------------|
G|--55-555-5--88-888-77-77--5-55-5-55-5-55-5-55------------|
C|------------88-888-77-77--5-55-5-55-5-55-5-55------------|
                            .    .    .    .

Pre Chorus
d|-------------------------------|
A|-------------------------------|
F|-------------------------------|
C|-------------------------------|
G|-000000000-0-000000000---------|
C|-000000000-0-000000000---------|
   .........   .........

Chorus
d|-----------------------------|
A|-----------------------------|
F|-----------------------------|
C|-----------------------------|
G|--0--8--3--7--8--10--11--12--|
C|--0--8--3--7--8--10--11--12--|


These are all of the parts to the song, just repeat whichever one needs to be repeated. 
is a pretty accurate tab, it's a really simple and fun song to play. Enjoy, and rate, thanks.
Tap to rate this tab
# A B C D E F G H I J K L M N O P Q R S T U V W X Y Z