Song name
# A B C D E F G H I J K L M N O P Q R S T U V W X Y Z

Deez Nuts - Fuck What You Think tab

***FUCK WHAT YOU THINK - DEEZ NUTS***

Tabbed By Drapte... Drapte_75@hotmail.com

Dropped C tuning, C-G-C-F-A-D


Intro And Main Riff

D--------------------------------------|
A--------------------------------------|
F--------------------------------------|
C-0~~~~~3~~~~~0~~~~~3~~5-6-------------|
G-0~~~~~3~~~~~0~~~~~3~~5-6-------------|
C-0~~~~~3~~~~~0~~~~~3~~5-6-------------|

Variation on one of the riffs

D--------------------------------------------------|
A--------------------------------------------------|
F--------------------------------------------------|
C-0~~~~~3~~~~~0~~~~~3~~6-5-------------------------|
G-0~~~~~3~~~~~0~~~~~3~~6-5-------------------------|
C-0~~~~~3~~~~~0~~~~~3~~6-5-------------------------|

Still Be Here When You've Sold Out and Turned Your Back On This!!

D---------------------------------------------------|
A---------------------------------------------------|
F---------------------------------------------------|
C-0--0--0--0--0--0--0--0--0--0--0--0--0--0--0--0--0-|
G-0--0--0--0--0--0--0--0--0--0--0--0--0--0--0--0--0-|
C-0--0--0--0--0--0--0--0--0--0--0--0--0--0--0--0--0-|

"Fuck What You Think" Outro
D-------------------------------------------12-12--|
A-------------------------------------------15-15b-|
F--------------------------------------------------|
C-6~~~~~5~~~~~~3~~~~~1~~~~~0~~~~-------------------|
G-6~~~~~5~~~~~~3~~~~~1~~~~~0~~~~-------------------|
C-6~~~~~5~~~~~~3~~~~~1~~~~~0~~~~-------------------|
Tap to rate this tab
# A B C D E F G H I J K L M N O P Q R S T U V W X Y Z