Song name
# A B C D E F G H I J K L M N O P Q R S T U V W X Y Z

Def Leppard - Me And My Wine tab

---------------------------------------------------------------|
-----------------2--8--2--6--2--8--2--6--2--8--2--6--2--8--2-6-|
---------2-------2--7--2--5--2--7--2--5--2--7--2--5--2--7--2-5-|
-3-2-0-----------2--5--2--3--2--5--2--3--2--5--2--3--2--5--2-3-|
-------3---3-2-------------------------------------------------|
---------------3-----------------------------------------------|

And here's the verse. This is played through most of the song:

----------------------------------------|
-2---8--8--6---5---2---8--8--6---2------|
-2---7--7--5---5---2---7--7--5---2------|
-2---5--5--3---5---2---5--5--3---2------|
---------------3------------------------|
-----------------------------------3b4--|

Here's the pre-chorus. Mute the power chords a little:

------------------------------------------------------------------|
------------------------------------------------------------------|
-7-7-7-7-7-7-7-7-5-5-5-5-5-5-5-5-7-7-7-7-7-7-7-7-5-5-5-5-5-5-5-5--|
-7-7-7-7-7-7-7-7-5-5-5-5-5-5-5-5-7-7-7-7-7-7-7-7-5-5-5-5-5-5-5-5--|
-5-5-5-5-5-5-5-5-3-3-3-3-3-3-3-3-5-5-5-5-5-5-5-5-3-3-3-3-3-3-3-3--|
------------------------------------------------------------------|


------------------------------------------------------------------|
------------------------------------------------------------------|
-7-7-7-7-7-7-7-7-5-5-5-5-5-5-5-5-4-4-4-4-4-4-4-4-3-3-3-3-3-3-3-3--|
-7-7-7-7-7-7-7-7-5-5-5-5-5-5-5-5-4-4-4-4-4-4-4-4-3-3-3-3-3-3-3-3--|
-5-5-5-5-5-5-5-5-3-3-3-3-3-3-3-3-2-2-2-2-2-2-2-2-1-1-1-1-1-1-1-1--|
------------------------------------------------------------------|

And the chorus. This goes right into the verse riff.

-------------------------------------------------------------------------|
-2---4-----2-------------------------3-----------------------------------|
-2---4-----2---7--5------------------2-----------------------------------|
-2---4--5--2---7--5---4-4-4-4-4-4-2--0--3-3-3-3-3-3-3-3-5-5-5-5-5-5-5-5--|
-----2--5------5--3---4-4-4-4-4-4-2--0--3-3-3-3-3-3-3-3-5-5-5-5-5-5-5-5--|
--------3-------------2-0-2-0-2-0-0-----1-1-1-1-1-1-1-1-3-3-3-3-3-3-3-3--|

And now for the fun part: The solo! Precede it with a few A chords, then
Play this:

--------------------------------------------------------------------------|
-------------------------------------------------------5-------5----------|
----------4-0----------2-4b6-2-4b6-2-4b6-4b6-----3/4-----3/4-----3/4---4--|
----4---------0----2/4-----------------------4---3/4-4---3/4-4---3/4-4----|
-2---------------2--------------------------------------------------------|
--------------------------------------------------------------------------|


------------------------10-12----12-10-7----------------10-12b14-12b14----|
-5-5b7-5-----------7-10------------------10-7--------------------------14-|
---------2--4--2/4------------11--------------10-9-7----------------------|
-----------------------------------------------------9--------------------|
--------------------------------------------------------------------------|
--------------------------------------------------------------------------|


-12-14-17-17b19-17-15-14h15p14--------------------------------------------|
-------------------------------17-15-14h15p14---------17-15-14-14h15r14---|
------------------------------------------------16-14---------------------|
--------------------------------------------------------------------------|
--------------------------------------------------------------------------|
--------------------------------------------------------------------------|


-------------------------------5--------------------------------2---------|
-16b18--16b18-16b18\-------------5-------5b7-5-5b7-5b7-2------2---5b7r5-2-|
----------------------2-4-4b6^^^^^^6r4-2----------------4-4b6-------------|
--------------------------------------------------------------------------|
--------------------------------------------------------------------------|
--------------------------------------------------------------------------|
                           hold bend

---------------------17--15-17--15-17--15-17--20b22-20p19p17h19p17--------|
--------------------------------------------------------------------20p17-|
-4b6r4-2-------2----------------------------------------------------------|
---------4-2-4---4--------------------------------------------------------|
--------------------------------------------------------------------------|
--------------------------------------------------------------------------|
                    lots of vibrato on the 17's

-20p19p17h19p17-------20b22-20p19p17h19p17---------------------------------|
----------------20p17----------------------20-17b19r17--17-17-17--19-19-19-|
--------------------------------------------------------17-17-17--19-19-19-|
---------------------------------------------------------------------------|
---------------------------------------------------------------------------|
---------------------------------------------------------------------------|


--------------------------------------------------------------17--20----20-|
-17-17-17--19-19-19--17-17-17--19-19-19--17-17-17--19-19-19----------17----|
-17-17-17--19-19-19--17-17-17--19-19-19--17-17-17--19-19-19----------------|
---------------------------------------------------------------------------|
---------------------------------------------------------------------------|
---------------------------------------------------------------------------|


-17----20-17----20-17----20-17----20b22-20-17h20p17----17------17----------|
----17-------17-------17-------17-------------------20---------------------|
---------------------------------------------------------19b21^^^^^21r19---|
------------------------------------------------------------------------19-|
---------------------------------------------------------------------------|
---------------------------------------------------------------------------|
                                                          hold bend

The solo goes straight back into the verse, then the prechorus, and then
The verse again. To wrap up the song, play the verse riff 1 3/4 times
(listen to the album to get the timing right), play the opening little
intro riff, slam an A chord, scream "Thank you!" at the top of your lungs,
and you're done!
Tap to rate this tab
 
# A B C D E F G H I J K L M N O P Q R S T U V W X Y Z