Song name
# A B C D E F G H I J K L M N O P Q R S T U V W X Y Z

Def Leppard - Amraggedon It tab

Ok the beginning is pretty simple just played it 5 times im still worki on the rest ill 
the whole song here soon


INTRO:
E|--------------------------------------------------------------------------|
B|-5-5-5-5-5-----------3-2-3-2----------------------------------------------|
G|-4-4-4-4-4-----------2-2-2-2----------------------------------------------|
D|--------------------------------------------------------------------------|
A|--------------------------------------------------------------------------|
E|--------------------------------------------------------------------------|

E|--------------------------------------------------------------------------|
B|-5-5-5-5-5-----------3-2-3-2----------------------------------------------|
G|-4-4-4-4-4-----------2-2-2-2----------------------------------------------|
D|--------------------------------------------------------------------------|
A|--------------------------------------------------------------------------|
E|--------------------------------------------------------------------------|

E|--------------------------------------------------------------------------|
B|-5-5-5-5-5-----------3-2-3-2----------------------------------------------|
G|-4-4-4-4-4-----------2-2-2-2----------------------------------------------|
D|--------------------------------------------------------------------------|
A|--------------------------------------------------------------------------|
E|--------------------------------------------------------------------------|

E|--------------------------------------------------------------------------|
B|-5-5-5-5-5-----------3-2-3-2----------------------------------------------|
G|-4-4-4-4-4-----------2-2-2-2----------------------------------------------|
D|--------------------------------------------------------------------------|
A|--------------------------------------------------------------------------|
E|--------------------------------------------------------------------------|

E|--------------------------------------------------------------------------|
B|-5-5-5-5-5-----------3-2-3-2----------------------------------------------|
G|-4-4-4-4-4-----------2-2-2-2----------------------------------------------|
D|--------------------------------------------------------------------------|
A|--------------------------------------------------------------------------|
E|--------------------------------------------------------------------------|
Tap to rate this tab
# A B C D E F G H I J K L M N O P Q R S T U V W X Y Z