Song name
# A B C D E F G H I J K L M N O P Q R S T U V W X Y Z

Def Leppard - High And Dry tab

high and dry
by def leppard
tabbed by saturns_bassman

Verse 1
G|-------------------|
D|------7~-----------|
A|-9~---------7~-----| x4
E|----------------0~-|

Verse 2
G|---------------------------------------------------------------------|
D|--------6-7~---7-6----------------6-------9-7~--7-6------666---------|
A|-9~---9------------7~---7---7~--7---9~--9--------------------9-7-----|
E|--------------------------7-------------------------0~-----------9-7-|

Chorus 1
G|--------------------------------------------------|----------------------|
D|-------------7~----77-7------------------------7~-|----------------------|
A|-9~----99--------7-------7~---77---7---77--9-99---|-7~----77---7----77---|
E|-----9----9------------7----7----7----7---9----9--|---7------7----7----7-|

[Verse 1] x3
[Verse 2]

Chorus 2
G|----------------------------------------------|
D|-------------7~----77-7-----------------------|
A|-9~----99--------7-------7~----77---7----77---| x4
E|-----9----9------------------7----7----7----7-|

[Verse 1] x2
[Chorus 2] x2
[Chorus 1]

End 
G|----|
D|----|
A|-7~-|
E|----|

Tap to rate this tab
# A B C D E F G H I J K L M N O P Q R S T U V W X Y Z