Song name
# A B C D E F G H I J K L M N O P Q R S T U V W X Y Z

Def Leppard - No Matter What tab

                            DEF LEPPARD
                          NO MATTER WHAT


STANDARD TUNING
EADGBe


-------------------------------------------|
-------------------------------------------|
-------------------------------------------|
---6-x-6-----6-6-x-6-----6-6-x-6-----6-6---|
---6-x-6--4h6--6-x-6--4h6--6-x-6--4h6--6---|
---4-x-4-4-----4-x-4-4-----4-x-4-4-----4---|

-------------------------------------------------------------|
-------------------------------------------------------------|
-------------------------------------------------------------|
----------------------6-x-6-----6-6-x-6-----6-8-x-8--8-x-8---|
----------------------6-x-6--4h6--6-x-6--4h6--8-x-8--8-x-8---|
----------------------4-x-4-4-----4-x-4-4-----6-x-6--6-x-6---|
no matter what you are...


theres the intro
good song
Tap to rate this tab
# A B C D E F G H I J K L M N O P Q R S T U V W X Y Z