Song name
# A B C D E F G H I J K L M N O P Q R S T U V W X Y Z

Def Leppard - It Could Be You tab

Help us improve GuitareTab! Take a short survey!
e|-------------|
B|-------------|
G|-7------9----|
D|-7------9----|
A|-5------7----|
E|-------------|x1

e|-------------------------------------------|
B|-------------------------------------------|
G|--------------5----------------------------|
D|----------5h7---7-5---5--------------------|
A|--------------------7---7--5---5-----------|
E|-----------------------------8---8b9--5----|x8

e|-----------------------------|
B|-----------------------------|
G|--7------12------5-----------|
D|--7------12------5------5----|
A|--5------10------3------5----|
E|------------------------3----|


e|---------------------|
B|---------------------|
G|--2------------------|
D|--2------------------|
A|--0-xxxxxxxxxxxxxx---|
E|---------------------|x5


solo...
Related for It Could Be You tab