Song name
# A B C D E F G H I J K L M N O P Q R S T U V W X Y Z

Def Leppard - Paper Sun tab

Paper Sun

Intro:

--------------------------------------------------------------------------------------------------------------|
--------------------------------------------------------------------------------------------------------------|
7-7-s-8-s-7-s-5-7-8-7-7----7-7-s-8-s-7-s-5-s-7-5-4-4----7-7-s-8-s-7-s-5-7-8-7-7----7-7-s-8-s-7-s-5-s-7-5-4-4--|
--------------------------------------------------------------------------------------------------------------|
--------------------------------------------------------------------------------------------------------------|
--------------------------------------------------------------------------------------------------------------|

Intro Cont:

--------------------------------------------------------------------------------------------------|
--------------------------------------------------------------------------------------------------|
7-s-9-s-7-s-9-s-7-s-5----7-s-9-s-7-s-9-s-7-s-5----7-s-9-s-7-s-9-s-7-s-5----7-s-9-s-7-s-9-s-7-s-5--|
7-s-9-s-7-s-9-s-7-s-5----7-s-9-s-7-s-9-s-7-s-5----7-s-9-s-7-s-9-s-7-s-5----7-s-9-s-7-s-9-s-7-s-5--|
5-s-7-s-5-s-7-s-5-s-3----5-s-7-s-5-s-7-s-5-s-3----5-s-7-s-5-s-7-s-5-s-3----5-s-7-s-5-s-7-s-5-s-3--|
--------------------------------------------------------------------------------------------------|

Verse:


----------------------------------------------|
----------------------------------------------|
7--8-7-7----7--5-4-4----7--8-7-7----7--5-4-4--|
----------------------------------------------|
----------------------------------------------|
----------------------------------------------|

Chorus:

-------------------------------------------------------------------------------------------------------------------------|
-------------------------------------------------------------------------------------------------------------------------|
9----xx-9-xx-9-xx-9-xx-9-s-7--------7-s-9--7-s-9--7-s-5--------9----xx-9-xx-9-xx-9-xx-9-s-7--------7-s-9--7-s-9--7-s-11--|
9----xx-9-xx-9-xx-9-xx-9-s-7--------7-s-9--7-s-9--7-s-5--------9----xx-9-xx-9-xx-9-xx-9-s-7--------7-s-9--7-s-9--7-s-11--|
7----xx-7-xx-7-xx-7-xx-7-s-5--------5-s-7--5-s-7--5-s-3--------7----xx-7-xx-7-xx-7-xx-7-s-5--------5-s-7--5-s-7--5-s-9---|
-------------------------------------------------------------------------------------------------------------------------|

Chorus Cont:

--------------------------------------------------------------------------------------------------|
--------------------------------------------------------------------------------------------------|
7-s-9-s-7-s-9-s-7-s-5----7-s-9-s-7-s-9-s-7-s-5----7-s-9-s-7-s-9-s-7-s-5----7-s-9-s-7-s-9-s-7-s-5--|
7-s-9-s-7-s-9-s-7-s-5----7-s-9-s-7-s-9-s-7-s-5----7-s-9-s-7-s-9-s-7-s-5----7-s-9-s-7-s-9-s-7-s-5--|
5-s-7-s-5-s-7-s-5-s-3----5-s-7-s-5-s-7-s-5-s-3----5-s-7-s-5-s-7-s-5-s-3----5-s-7-s-5-s-7-s-5-s-3--|
--------------------------------------------------------------------------------------------------|

After Chorus:

--------------------------------------------------------------------------------------------------------------|
--------------------------------------------------------------------------------------------------------------|
7-7-s-8-s-7-s-5-7-8-7-7----7-7-s-8-s-7-s-5-s-7-5-4-4----7-7-s-8-s-7-s-5-7-8-7-7----7-7-s-8-s-7-s-5-s-7-5-4-4--|
--------------------------------------------------------------------------------------------------------------|
--------------------------------------------------------------------------------------------------------------|
--------------------------------------------------------------------------------------------------------------|

Second Verse:

----------------------------------------------|
----------------------------------------------|
7--8-7-7----7--5-4-4----7--8-7-7----7--5-4-4--|
----------------------------------------------|
----------------------------------------------|
----------------------------------------------|

Second Chorus:

-------------------------------------------------------------------------------------------------------------------------|
-------------------------------------------------------------------------------------------------------------------------|
9----xx-9-xx-9-xx-9-xx-9-s-7--------7-s-9--7-s-9--7-s-5--------9----xx-9-xx-9-xx-9-xx-9-s-7--------7-s-9--7-s-9--7-s-11--|
9----xx-9-xx-9-xx-9-xx-9-s-7--------7-s-9--7-s-9--7-s-5--------9----xx-9-xx-9-xx-9-xx-9-s-7--------7-s-9--7-s-9--7-s-11--|
7----xx-7-xx-7-xx-7-xx-7-s-5--------5-s-7--5-s-7--5-s-3--------7----xx-7-xx-7-xx-7-xx-7-s-5--------5-s-7--5-s-7--5-s-9---|
-------------------------------------------------------------------------------------------------------------------------|


Second Chorus Cont:

--------------------------------------------------------------------------------------------------|
--------------------------------------------------------------------------------------------------|
7-s-9-s-7-s-9-s-7-s-5----7-s-9-s-7-s-9-s-7-s-5----7-s-9-s-7-s-9-s-7-s-5----7-s-9-s-7-s-9-s-7-s-5--|
7-s-9-s-7-s-9-s-7-s-5----7-s-9-s-7-s-9-s-7-s-5----7-s-9-s-7-s-9-s-7-s-5----7-s-9-s-7-s-9-s-7-s-5--|
5-s-7-s-5-s-7-s-5-s-3----5-s-7-s-5-s-7-s-5-s-3----5-s-7-s-5-s-7-s-5-s-3----5-s-7-s-5-s-7-s-5-s-3--|
--------------------------------------------------------------------------------------------------|

First Solo:

--------------------------------------------------------------------------------|
--------------------------------------------------------------------------------|
--------------------------------------------------------------------------------|
4444--5-6--4444--5-6-4444--5-6--4-5-6----4444--5-6--4444--5-6-4444--5-6--4-5-6--|
4444--5-6--4444--5-6-4444--5-6--4-5-6----4444--5-6--4444--5-6-4444--5-6--4-5-6--|
2222--3-4--2222--3-4-2222--3-4--2-3-4----2222--3-4--2222--3-4-2222--3-4--2-3-4--|


----------------------------------------------------------------------------------------------------|
----------------------------------------------------------------------------------------------------|
4444--5-6--4444--5-6-4444--5-6--4-3-5---------------------------------------------------------------|
4444--5-6--4444--5-6-4444--5-6--4-3-5----4444--5-6--4444--5-6--4444--5-6--9-8-7-6-7-8-9-------------|
2222--3-4--2222--3-4-2222--3-4--2-1-3----4444--5-6--4444--5-6--4444--5-6--9-8-7-6-7-8-9-------------|
----------------------------------------------------2222--3-4--2222--3-4--2222--3-4--7-6-5-4-5-6-7--|

Bridge To Second Solo:

No Idea

Second Solo:

No Idea

Third Chorus:

-------------------------------------------------------------------------------------------------------------------------|
-------------------------------------------------------------------------------------------------------------------------|
9----xx-9-xx-9-xx-9-xx-9-s-7--------7-s-9--7-s-9--7-s-5--------9----xx-9-xx-9-xx-9-xx-9-s-7--------7-s-9--7-s-9--7-s-11--|
9----xx-9-xx-9-xx-9-xx-9-s-7--------7-s-9--7-s-9--7-s-5--------9----xx-9-xx-9-xx-9-xx-9-s-7--------7-s-9--7-s-9--7-s-11--|
7----xx-7-xx-7-xx-7-xx-7-s-5--------5-s-7--5-s-7--5-s-3--------7----xx-7-xx-7-xx-7-xx-7-s-5--------5-s-7--5-s-7--5-s-9---|
-------------------------------------------------------------------------------------------------------------------------|


Third Chorus Cont:

--------------------------------------------------------------------------------------------------|
--------------------------------------------------------------------------------------------------|
7-s-9-s-7-s-9-s-7-s-5----7-s-9-s-7-s-9-s-7-s-5----7-s-9-s-7-s-9-s-7-s-5----7-s-9-s-7-s-9-s-7-s-5--|
7-s-9-s-7-s-9-s-7-s-5----7-s-9-s-7-s-9-s-7-s-5----7-s-9-s-7-s-9-s-7-s-5----7-s-9-s-7-s-9-s-7-s-5--|
5-s-7-s-5-s-7-s-5-s-3----5-s-7-s-5-s-7-s-5-s-3----5-s-7-s-5-s-7-s-5-s-3----5-s-7-s-5-s-7-s-5-s-3--|
--------------------------------------------------------------------------------------------------|

Third Solo:

No Idea
Tap to rate this tab
# A B C D E F G H I J K L M N O P Q R S T U V W X Y Z