Song name
# A B C D E F G H I J K L M N O P Q R S T U V W X Y Z

Def Leppard - Ride Into The Sun tab

Def leppard – ride into the sun
From “Retro active”

By Sanjeev George and Thomas George
Mail at SanjeevGeorge123@yahoo.co.in

Intro

e|------------------------------------------|
B|------------------------------------------|
G|--9\-------9-----9----7-7-7---------------|play 3 times
D|--9\-------9-----9----7-7-7--------0-2----|
A|--7\-------7-----7----5-5-5------2--------|
E|-------0-0---0-0---0-----------3----------|

e|----------------------------------------------------------------|
B|----------------------------------------------------------------|
G|------9-----9---12----------------------------------------------|
D|------9-----9---12---------0-----------0-----------0-------2----|
A|------7-----7---10-------2-----4-7---2-----4-7---2-----4-7-2----|
E|--0-0---0-0---0--------3-----5-----3-----5-----3-----5----------|


Only guitar 2

e|-----------------------------------------scrape -------------|
B|--8-x-x-8--7----x-x-8-7--x-x--8-x-x--8---strings-------------|
G|--7-x-x-7--7----x-x-7-7--x-x--7-x-x--7---with pick-----------|
D|--5-x-x-5--5----x-x-5-5--x-x--5-x-x--5----------------5------|
A|------------------------------------------------------5------|
E|------------------------------------------------------3------|

e|------------------------------------------|
B|------------------------------------------|
G|-----------9-----9----7-7-7---------------|play twice
D|-----------9-----9----7-7-7--------0-2----|
A|-----------7-----7----5-5-5------2--------|
E|-------0-0---0-0---0-----------3----------|


Verse
e|------------------------------------------|
B|------------------------------------------|
G|-----------9-----9----7-7-7---------------|
D|-----------9-----9----7-7-7--------0-2----|
A|-----------7-----7----5-5-5------2--------|
E|-------0-0---0-0---0-----------3----------|

e|------------------------------------------|
B|------------------------------------------|
G|------9-----9---7---7---------------------|
D|------9-----9---7---7----7--------0-2-----|
A|------7-----7---5---5----7------2---------|
E|--0-0---0-0---0----------5----3-----------|

e|------------------------------------------|
B|------------------------------------------|
G|-----------9-----9----7-7-7---------------|
D|-----------9-----9----7-7-7--------0-2----|
A|-----------7-----7----5-5-5------2--------|
E|-------0-0---0-0---0-----------3----------|

e|------------------------------------------|
B|------------------------------------------|
G|-----------9-----9----7-7-7---------------|
D|-----------9-----9----7-7-7--------0-2----|
A|-----------7-----7----5-5-5------2--------|
E|-------0-0---0-0---0-----------3----------|

e|-------------------------------------------|
B|-------------------------------------------|
G|------9-----9---7---7----------------------|
D|------9-----9---7---7----7--------0-2------|
A|------7-----7---5---5----7------2----------|
E|--0-0---0-0---0----------5----3------------|


e|----------------------|
B|----------------------|
G|------9-----9---7-----|
D|------9-----9---7-----|
A|------7-----7---5-----|
E|--0-0---0-0---0-------|


Chorus (“We’re gonna make it…..”)

e|----------------------------------------------------------------|
B|----------------------------------------------------------------|
G|--------12----14----12-12-12-----14-----12-12-12-----14---------|
D|--------12----14----12-12-12-----14-----12-12-12-----14-----9---|
A|--10-12-10----12----10-10-10-----12-----10-10-10-----12-----9---|
E|------------------------------------------------------------7---|

e|------------------------------------------|
B|------------------------------------------|
G|-----------9-----9----7-7-7---------------|
D|-----------9-----9----7-7-7--------0-2----|
A|-----------7-----7----5-5-5------2--------|
E|-------0-0---0-0---0-----------3----------|


Verse 2(same as verse 1 chords)

Chorus

Solo (Guitar 1)

e|------------------------------------------|
B|------------------------------------------|
G|-----------9-----9----7-7-7---------------|
D|-----------9-----9----7-7-7--------0-2----|play 3 times
A|-----------7-----7----5-5-5------2--------|
E|-------0-0---0-0---0-----------3----------|


e|-------------------------------------------------------------------------------|
B|-------------------------------------------------------------------------------|
G|------9-----9-----7---7----------------------9-----9---7----------12-----14----|back to chorus
D|------9-----9-----7---7----7--------0-2------9-----9---7----------12-----14----|
A|------7-----7-----5---5----7—-----2----------7-----7---5----------10-----12----|
E|--0-0---0-0---0------------5----3--------0-0---0-0---0------10-12--------------|


e|--------------------------------------------------------|
B|--------------------------------------------------------|
G|----12-12-12-----14-----12-12-12-----14-----------------|
D|----12-12-12-----14-----12-12-12-----14-----9-drop—-----|
A|----10-10-10-----12-----10-10-10-----12-----9—with------|
E|--------------------------------------------7—whammy----|


e|------------------------------------------|
B|------------------------------------------|
G|-----------9-----9----7-7-7---------------|
D|-----------9-----9----7-7-7--------0-2----| 3 times
A|-----------7-----7----5-5-5------2--------|
E|-------0-0---0-0---0-----------3----------|

e|-----------------------------------------------------------------|
B|-----------------------------------------------------------------|
G|------9-----9---12-----------------------------------------------|
D|------9-----9---12---------0-----------0-----------0--------2----|
A|------7-----7---10-------2-----4-7---2-----4-7---2------4-7-2----|
E|--0-0---0-0---0--------3-----5-----3-----5-----3------5----------|

Song order

Intro
Verse 1
Chorus
Verse2
Chorus 
Solo
Chorus till end

Lyrics:

Verse 1
Revvin' up, hundred 'n' four 
Hammer down, foot to the floor 
Such a hard ride 
Ride into the sun 
Shootin' in 
Got a ticket to ride 
Movin' out 
This is no place to hide 
When you're ridin' 
Ride into the sun 

Chorus
We gonna make it baby 
So step inside 
And if we make it baby 
We're gonna ride into the sun 
Just ride into the sun 

Verse 2
Burn it up 
We're gonna cruise 
Kick down 
Nothin' to lose 
When you're ridin' 
Ride into the sun 

A hot shot 
Hooked on the street 
I'm in love 
Got the fire in me 
When I'm ridin' 
Ride into the sun 


Chorus
We gonna make it baby 
So step inside 
And if we make it baby 
We're gonna ride 
Ride on! 

Last chorus
we gonna make it baby 
So step inside 
And if we make it baby 
Ya know we're gonna 
Ride 
Ride into the sun 
Yeah 
Ride into the sun 
Just ride into the sun 
Yeah 
Hey!

The end
Tap to rate this tab
# A B C D E F G H I J K L M N O P Q R S T U V W X Y Z