Song name
# A B C D E F G H I J K L M N O P Q R S T U V W X Y Z

Def Leppard - Rocks Off tab

Def Leppard: Rocks Off; On through the Night

This is magority of the song(minus leads) up to the bridge but it goes in the background 
the solo too, so it should get you on your way.

----------------------------------------------------------------------------|
----------------------------------------------------------------------------|
------5p3---3--------------5--3------5p3----3-----3-------------------------|
---5------5---5---3--3--5--5--3---5-------5---5---3--3----------------------|
-----------------------------------------------------3----------------------|
----------------------------------------------------------------------------|
Play 8 times


----------------------------------------------------------------------------|
----------------------------------------------------------------------------|
-------10p8----8---------------10--8-------10p8-----8------8----------------|
---10-------10---10---8--8--8--10--8---10--------10---10---8--8-------------|
--------------------------------------------------------------8-------------|
----------------------------------------------------------------------------|
Play 2 times


----------------------------------------------------------------------------|
----------------------------------------------------------------------------|
------5p3---3--------------5--3------5p3----3-----3-------------------------|
---5------5---5---3--3--5--5--3---5-------5---5---3--3----------------------|
-----------------------------------------------------3----------------------|
----------------------------------------------------------------------------|
Play 2 more times


----------------------------------------------------------------------------|
----------------------------------------------------------------------------|
----------------------------------------------------------------------------|
---5-----3-----5-----3------------------------------------------------------|
---3--5--1--3--3--5--1--3---5-----------------------------------------------|
------3-----1-----3-----1---3-----------------------------------------------|

----------------------------------------------------------------------------|
----------------------------------------------------------------------------|
------5p3---3--------------5--3------5p3----3-----3-------------------------|
---5------5---5---3--3--5--5--3---5-------5---5---3--3----------------------|
-----------------------------------------------------3----------------------|
----------------------------------------------------------------------------|
Play 8 times


----------------------------------------------------------------------------|
----------------------------------------------------------------------------|
-------10p8----8---------------10--8-------10p8-----8------8----------------|
---10-------10---10---8--8--8--10--8---10--------10---10---8--8-------------|
--------------------------------------------------------------8-------------|
----------------------------------------------------------------------------|
Play 2 times


----------------------------------------------------------------------------|
----------------------------------------------------------------------------|
------5p3---3--------------5--3------5p3----3-----3-------------------------|
---5------5---5---3--3--5--5--3---5-------5---5---3--3----------------------|
-----------------------------------------------------3----------------------|
----------------------------------------------------------------------------|
Play 2 more times


----------------------------------------------------------------------------|
----------------------------------------------------------------------------|
----------------------------------------------------------------------------|
---5-----3-----5-----3------------------------------------------------------|
---3--5--1--3--3--5--1--3---5-----------------------------------------------|
------3-----1-----3-----1---3-----------------------------------------------|
Tap to rate this tab
# A B C D E F G H I J K L M N O P Q R S T U V W X Y Z