Guitaretab - guitar tabs
Song name
# A B C D E F G H I J K L M N O P Q R S T U V W X Y Z

Def Leppard - Guilty tab

                         Def leppard  Guilty solo


By Sanjeev George and Thomas George, Bangalore, India
Email at bassatom@yahoo.co.in

v  vibrato
s  slide as reqd.
h  hammer on
~  let ring

We have figured out 2 ways of playing this. Listen to the song for correct timing.
There are lots of effects with the distortion used for the song, perhaps the wah pedal is also used

     I

e|---------------------------------------------------|
B|----------7-b9-----7v------------------------------|
G|---9vvv---------9--------8-h9-8v-----6~------------|
D|----------------------------------9------6s9-------|
A|---------------------------------------------------|
E|---------------------------------------------------|
[ Tab from: http://www.guitaretab.com/d/def-leppard/148612.html ]
e|------------------7~---9s12-----14--16---16b16vvvv---------|
B|---9-b109v---10--------------------------------------------|
G|------------------------------------------------------------|
D|------------------------------------------------------------|
A|------------------------------------------------------------|
E|------------------------------------------------------------|


        II

e|---------------------------------------------------------------|
B|---------------------------------------------------------------|
G|----------11-b13------11v--------------------------------------|
D|---14vvv----------14---------13-h1413v-----13~----------------|
A|-----------------------------------------14------11s14---------|
E|---------------------------------------------------------------|


e|------------------------------12`--1416vvv----------------|
B|---------------------12~--14-------------------------------|
G|---13-b14---13v--14----------------------------------------|
D|-----------------------------------------------------------|
A|-----------------------------------------------------------|
E|-----------------------------------------------------------|

Please rate and comment on this tab

Related for Guilty tab