Song name
# A B C D E F G H I J K L M N O P Q R S T U V W X Y Z

Def Leppard - Desert Song tab

             Def leppard – desert song
                 From  “Retroactive”

By Sanjeev George and Thomas George
Contact at SanjeevGeorge123@yahoo.co.in


| b  bend
| r  release bend
| /  slide up 
| \  slide down
| h  hammer-on
| p  pull-off
| ~  hold note ands let ring
| v  vibrato
| *  drop note with tremolo


Intro
e|------------------------------------------------|
B|------------------------------------------------|
G|--------------9-9-9---9-9-9----9-9-9------------|
D|----10--------9-9-9---9-9-9----9-9-9------------|Play 4 times
A|--8----8-7----7-7-7---7-7-7----7-7-7------------|
E|--------------------0--------0-------0-0--------|

Verses (Guitar 1)
e|----------------------------------------|
B|---------------------------------8------|
G|--9-9-9---9-9-9-----9-9-9---10-----9v---|
D|--9-9-9---9-9-9-----9-9-9---10----------|
A|--7-7-7---7-7-7-----7-7-7---------------|
E|------------------0---------------------|

e|----------------------------------------|
B|----------------------------6---6/8-----|
G|--9-9-9---9-9-9-----9-9-9---5-------9v--|
D|--9-9-9---9-9-9-----9-9-9---------------|
A|--7-7-7---7-7-7-----7-7-7---------------|
E|------------------0---------------------|

e|----------------------------------------|
B|---------------------------------8------|
G|--9-9-9---9-9-9-----9-9-9---10-----9v---|
D|--9-9-9---9-9-9-----9-9-9---10----------|
A|--7-7-7---7-7-7-----7-7-7---------------|
E|------------------0---------------------|

e|----------------------------------------|
B|----------------------------------------|
G|--9-9-9---9-9-9-----9-9-9-----------9---|
D|--9-9-9---9-9-9-----9-9-9-----10----7---|
A|--7-7-7---7-7-7-----7-7-7---8----10-----|
E|------------------0---------------------|


Chorus (Guitar 1)
e|---8h10p8---------------------8h10p8----------------------|
B|----------10-------------------------10-------------------|
G|-----------9--9-10-9--10--------------9--9-10-9--10-------|
D|----------------------------------------------------------|
A|--------------------------0-------------------------------|
E|----------------------------------------------------------|

e|------------------------------------------|
B|-------------------0----------------------|
G|-----------0---------0--------------------|
D|--------2-----2--------2------0-----------|
A|------3---------3---------3v-------0------|
E|---0-----------------------------3--------|

e|---8h10p8---------------------8h10p8----------------------|
B|----------10-------------------------10-------------------|
G|-----------9--9-10-9--10--------------9--9-10-9--10-------|
D|----------------------------------------------------------|
A|--------------------------0-------------------------------|
E|----------------------------------------------------------|

e|---------------------------|
B|---------------------------|
G|-----------0------4*-------|
D|--------2----2-------------|
A|------3--------3-----------|
E|---0-----------------------|


Intro riff 4 times with guitar 2 fill
e|--------------------7------------------------------|
B|---9v-----7h9-9b10----b10r9-9v---------------------|
G|-----------------------------------7--9------------|
D|----------------------------------------9*---------|
A|---------------------------------------------------|
E|---------------------------------------------------|

After 2nd chorus:

Guitar 1=intro riff 4 times then
e|---------------------------------------|
B|---------------------------------------|
G|---------------------------------------|till the bridge
D|---------------------------------------|
A|-----7-7-7v---7-7-7v---7-7-7v----------|
E|---0--------0--------0-------0---------|

Guitar 2=fill below
e|--------------------7-----------------------------------------------------------------|
B|---9v-----7h9-9b10----b10r9-9v--------------------------------------------------------|
G|-----------------------------------7--9—7b9r7-----------------------------------------|
D|----------------------------------------------9v-----7v--9-7b9r7—6v-----5--7----------|
A|-----------------------------------------------------------------------------7v-------|
E|--------------------------------------------------------------------------------------|

Bridge (Guitar 1)  Em  Am  C
                            (Twice)
                   Em  Am  G    

                  Twice with verse in bridge

Solo (guitar 2)
Guitar 1 =Intro riff 4 times
                Then chorus once

This till it fades away
e|------------------------------------------------------------------|
B|------------------------------------------------------------------|
G|------------------------------------9-9-9----9-9-9----9-9-9-------|
D|------------------------------------9-9-9----9-9-9----9-9-9-------|
A|-----7-7-7v----7-7-7v----7-7-7v-----7-7-7----7-7-7----7-7-7-------|
E|---0---------0---------0---------0---------0--------0-------------|

Tap to rate this tab
# A B C D E F G H I J K L M N O P Q R S T U V W X Y Z