Song name
# A B C D E F G H I J K L M N O P Q R S T U V W X Y Z

Def Leppard - 20th Century Boy tab

TUNED HALF STEP DOWN


|-0----0---------------------------|
|-0----0---------------------------|
|-1----1---------------------------|
|-2----2---------------------------|  Repeat 3 times (not the E cords)
|-2----2---------------------------|
|-0----0-----0-0-0-3-0-0-3-0-3-0---|


Lyrics

A
Friends say it's fine

Friends say it's good

Everybody says it's just like Robin Hood

INTRO x2

A
I move like a cat

Crawl like a rat

Sting like a bee

Babe I'm gonna be your man

INTRO x2

A
And it's plain to see
         B
You were meant for me
      E
Yeah, I'm your toy

Your 20th Century boy

INTRO x2

A
Friends say it's fine

Friends say it's good

Everybody says it's just like Robin Hood

INTRO x2

A
Fly like a plane

Drive like a car

Ball like a hound

Babe I'm gonna be your man

INTRO x2

A
And it's plain to see
         B
You were meant for me
      E
Yeah, I'm your toy

Your 20th Century boy

20th Century boy, I wanna be your toy [4x]

INTRO x2

A
Friends say it's fine

Friends say it's good

Everybody says it's just like Robin Hood

INTRO x2

A
I move like a cat

Crawl like a rat

Sting like a bee

Babe I'm gonna be your man

INTRO x2

A
And it's plain to see
         B
You were meant for me
     E
Yeah I'm your toy

Your 20th Century boy

20th Century boy, I wanna be your toy [4x]


Durring the 20th Century boy, I wanna be your toy [4x] part it is
|----------------------------------|
|----------------------------------|
|-8--8--8--6--8----8--8--8--11-8---|
|-8--8--8--6--8----8--8--8--11-8---|
|-6--6--6--4--6----6--6--6--9--6---|  Repeat 4 times
|----------------------------------|


Durring solo  strum an E chord             (Leave comments please)
Tap to rate this tab
# A B C D E F G H I J K L M N O P Q R S T U V W X Y Z