Guitaretab - guitar tabs
Song name
# A B C D E F G H I J K L M N O P Q R S T U V W X Y Z

Def Leppard - Action tab

 Def leppard  action intro
  From "Retroactive"
By Sanjeev George and Thomas George

Email at sanjeevgeorge123@yahoo.co.in

Guitar 1          Tremolo picking on all the notes
e|------------------------------------------------------------|
B|--15-15-15-15-15-15-15-15-15-15-15-15-15-15-15-15-----------|
G|------------------------------------------------------------|
D|------------------------------------------------------------|
A|------------------------------------------------------------|
E|------------------------------------------------------------|

e|------------------------------------------------------------|
B|--18-18-18-18-18-18-18-18-18-18-18-18-18-18-18-18-----------|
G|------------------------------------------------------------|
D|------------------------------------------------------------|
A|------------------------------------------------------------|
E|------------------------------------------------------------|

e|------------------------------------------------------------|
B|------------------------------------------------------------|
G|--16-16-16-16-16-16-16-16-16-16-16-16-16-16-16-16-----------|
D|------------------------------------------------------------|
A|------------------------------------------------------------|
E|------------------------------------------------------------|
[ Tab from: http://www.guitaretab.com/d/def-leppard/165454.html ]
e|------------------------------------------------------------|
B|------------------------------------------------------------|
G|--17-17-17-17-17-17-17-17-17-17-17-17-17-17-17-17-----------|
D|------------------------------------------------------------|
A|------------------------------------------------------------|
E|------------------------------------------------------------|

e|--17-17-17-17-17-17-17-17-17-17-17-17-17-17-17-17-----------|
B|------------------------------------------------------------|
G|------------------------------------------------------------|
D|------------------------------------------------------------|
A|------------------------------------------------------------|
E|------------------------------------------------------------|

e|--18-18-18-18-18-18-18-18-18-18-18-18-18-18-18-18-----------|
B|------------------------------------------------------------|
G|------------------------------------------------------------|
D|------------------------------------------------------------|
A|------------------------------------------------------------|
E|------------------------------------------------------------|

e|--19-19-19-19-19-19-19-19-19-19-19-19-19-19-19-19-----------|
B|------------------------------------------------------------|
G|------------------------------------------------------------|
D|------------------------------------------------------------|
A|------------------------------------------------------------|
E|------------------------------------------------------------|

e|--20-20-20-20-20-20-20-20-20-20-20-20-20-20-20-20-----------|
B|------------------------------------------------------------|
G|------------------------------------------------------------|
D|------------------------------------------------------------|
A|------------------------------------------------------------|
E|------------------------------------------------------------|
   Repeat the above tabs twice

Clean guitar 2 strums a D twice during the above intro (listen to song)
Related for Action tab